La Hoya

Nameless Race

Sem foto do Nameless Race
Tom: C
		
[code]


      by: Jeremy Spence and Joe McDonough


Intro Part I: Play Twice


e|----0----2----3----5----3---2---3----2---0|
B|-00---00---00---00---00---0---0---00--00--|
G|------------------------------------------|
D|------------------------------------------|
A|------------------------------------------|
E|------------------------------------------|


Intro Part II: Play Once


e|----2----3----2----0----0----2----3----2--|
B|-33---33---33---33---33---33---33---33----|
G|------------------------------------------|
D|------------------------------------------|
A|------------------------------------------|
E|------------------------------------------|


Intro Part III: Play Once


e|---2---3---3/5---3---2---3---2-----2h3p2p0|
B|00--00--00-----00--00--00--00--00---------|
G|------------------------------------------|
D|------------------------------------------|
A|------------------------------------------|
E|------------------------------------------|


Intro Part IV


e|-0--2--3--3/5--3--2--3--2h3p2p0-----------|
B|---------------------------------3/5------|
G|------------------------------------------|
D|--------------------------------------2-2-|
A|--------------------------------------2-2-|
E|--------------------------------------0-0-|



e|-0-2-3-3/5-3-2-3-2h3p2p0----------------|
B|-------------------------3/5------------|
G|----------------------------------2--H--|
D|-----------------------------2-2--2--O--|
A|-----------------------------2-2--0--L--|
E|-----------------------------0-0-----D--|



e|-0-2-3-3/5-H-3-2-3-2h3p2p0---------------3|
B|-----------O---------------3/5-----------1|
G|-----------L------------------------2-2--2|
D|-----------D-------------------2-2--2-2--2|
A|-------------------------------2-2--0-0--0|
E|-------------------------------0-0--------|



e|-0-2-3-3/5-5-5/7-5-3-5-3h5p3p2-2h3p2p0----|
B|---------------------------------------3/5|
G|------------------------------------------|
D|------------------------------------------|
A|------------------------------------------|
E|------------------------------------------|


Main Part: Play 2 Times


e|-0000000000--0000000000-|
B|-0000000000--0000000000-|
G|-0000000000--0000000000-|   Main
D|-2222222222--2222222222-|
A|-2222222222--2222222222-|
E|-0000000000--0000000000-|



e|-0000003333-0000003333------|
B|-0000001111-0000001111------|
G|-2222222222-2222222222------| Main
D|-2222222222-2222222222------|
A|-0000000000-0000000000------|
E|-0000000000-0000000000------|



e|-0000000000--0000000000-|
B|-0000000000--0000000000-|
G|-0000000000--0000000000-|  Main
D|-2222222222--2222222222-|
A|-2222222222--2222222222-|
E|-0000000000--0000000000-|



e|-2222222320--2222222320-|
B|-3333333333--3333333333-|
G|-2222222222--2222222222-|   Main
D|-0000000000--0000000000-|
A|-0000000000--0000000000-|
E|-0000000000--0000000000-|


Chorus


e|-0000000000--0000000000-|
B|-1111111111--0000000000-|
G|-2222222222--0000000000-|
D|-3333333333--2222222222-|
A|-0000000000--3333333333-|
E|-0000000000--0000000000-|



e|-0000000000--0000000000-|
B|-1111111111--0000000000-|
G|-2222222222--0000000000-|
D|-3333333333--0000000000-|
A|-0000000000--2222222222-|
E|-0000000000--3333333333-|



e|-0000000000--0000000000-|
B|-1111111111--0000000000-|
G|-2222222222--0000000000-|
D|-3333333333--2222222222-|
A|-0000000000--3333333333-|
E|-0000000000--0000000000-|



e|-0000000000--0000000000---|
B|-1111111111--1111111110-H-|
G|-2222222222--0000000000-O-|
D|-3333333333--0000000000-L-|
A|-0000000000--2222222222-D-|
E|-0000000000--3333333333---|


Play Main

Play Chorus


e|-0-2-3-3/5-H-3-2-3-2h3p2p0--0----|
B|-----------O----------------3/5--|
G|-----------L---------------------|
D|-----------D---------------------|
A|---------------------------------|
E|---------------------------------|


Still a work in progress.
If you need help on the rythym, tell me.
[/code]
323 exibições

Comentários 0

Consegui tocarAinda não conseguiram tocar essa música. Seja o primeiro!
    Não consegui tocar
    Exibir acordes »
    publicidade
    fechar