O mundo é bão, Sebastião!

Nando Reis

 Nando Reis
Tom: E
		
Intro:

Repete 8 vezes 

e|-------------------------|
B|-------------------------|
G|-------------------------|
D|---4~-----2~---6~-2---2--|
A|------2-4----4------4----|
E|-2-----------------------|


 
          E
Porque o Sol saiu
	     B
Porque seu dente caiu
	      A	
Porque essa flor se abriu
         G#               F#
Porque iremos viajar no verão
			        A
Porque aqui o mundo não será cão

	     E
Quando Godzila atacar
	        B
Quando essa febre baixar
	      A
Quando o mamute voltar
	 G#		           F#				   
Descongelado a caminhar na Sibéria
				            A
Quando invento, o mundo é feito de idéias


Refrão:
	    B
O mundo é bão, Sebastião
	     A
O mundo é bão, Sebastião
	     F#
O mundo é bão, Sebastião
	     A
O mundo é teu, Sebastião 

Repete 4 vezes a intro

		   E
Como escrever certo o seu nome
		    B 	
Quando comer se der fome
		    A
Como sonhar pra quem dorme
		 G#			   F#		
E deixa o cansaço acalmar lá em casa
					   A
Como soltar o mundo inteiro com asas



		 E
Tiranossauro Rex tião
			B
E dentro dos seus olhos virão
		   A
Monstros imaginários ou não
            G#			  F#
Tão fortes, somos todos os infernais
			  A
E agora eu vivo em paz


Refrão:
Repete 2 vezes 
	    B
O mundo é bão, Sebastião
	     A
O mundo é bão, Sebastião
	     F#
O mundo é bão, Sebastião
	     A
O mundo é teu, Sebastião


e|------------------------------------------------------------
B|------------------------------------------------------------
G|----------------4-2---4-2~--1/2-1---------------------------
D|----------1-2-4-----4--------------4-2-4~----4-2-1~---------
A|-2-2--2-4----------------------------------2--------4-2-----
E|--------------------------------------------------------4-2-



e|------------------------------------------------------------|
B|------------------------------------------------------------|
G|----------------4-2---4-2~--1/2-1---------------------------|
D|----------1-2-4-----4--------------4-2-4~----4-2-1~---------|
A|-2-2--2-4----------------------------------2----------------|
E|------------------------------------------------------------|


 
Refrão:
Repete 3 vezes
	    B
O mundo é bão, Sebastião
	     A
O mundo é bão, Sebastião
	     F#
O mundo é bão, Sebastião
	     A
O mundo é teu, Sebastião

depois de repetir o refrão 3 vezes deixa soar o B.
207.900 exibições

Comentários 2

Composição: Adriana Calcanhotto / Nando Reis / Tim Rice-Oxley
Esse não é o compositor? Avise-nos.
Contribuição: Nat
Exibir acordes »
publicidade
fechar