Tom: A
		
Intro: E  E/G#  A  C#m  B  E/G#  A  F#m  B   A/C#  B/D#
       E  E/G#  A  C#m  B  E/G#  A  F#m  B

Refrão:
E    E/G#     A            C#m
Só se tem saudade do que é bom
                B
Se chorei de saudade
    E/G#       A   (Riff 1)  F#m
Não foi por fraqueza,
               B     A/C#  B  (Riff 2)
Foi porque eu amei

E        B/D#
E se eu amei
C#m              C#m/B
Quem vai me condenar
A          E/G#
  Se eu chorei
F#m               B    (A/C#  B/D#  E)
  Quem vai me criticar   (2x)

E              C#m
  Só quem não amou
             A
Quem não chorou
              B
Quem se esqueceu
               B/D#
Que é um ser humano

E            C#m
  Quem não viveu
             A
Quem não sofreu
             F#m
Só quem já morreu
           B             A/C# B E    (Riff 2)
E se esqueceu de deitar

Refrão:
E       E/G#    A            C#m
  Só se tem saudade do que é bom
               B
Se chorei de saudade
    E/G#         A  (Riff 1)  F#m
Não foi por fraqueza,
               B    (A/C#  B  E)   (Riff 2)
Foi porque eu amei


SOLO: A/C#  B  A  E/G#  D  A/C#  D  A/C#  B  A/C#  B  E

Riff 1:

E|-----------------------|
B|---2---0---------------|
G|-----------2---1---2---|
D|-----------------------|
A|-----------------------|
E|-----------------------|


Riff 2:

E|---4-------0---4---2---0--------------|
B|-------0-------------------0----------|
G|-------------------------------2---1--|
D|--------------------------------------|
A|--------------------------------------|
E|--------------------------------------|
15.648 exibições

Comentários 1

  • strongmusic strongmusic: Postado em 28/07/2012 22:49

    saLdade com L é tenso

Composição: Sabe quem é o compositor? Envie pra gente. Contribuição: matheufelip Correções: Rafael , matheufelip e mais 2 »
Exibir acordes »
publicidade
fechar