Esse Cara Sou Eu

Patrício Jesus

Sem foto do Patrício Jesus
Tom: 
		

E|-----------------------------------------------------------------------------------------
B|-----------------------------------------------------------------------------------------
G|--14b16--16~-16-16-16b14-14p12----------14b16-16~-16-16-16-16b14-14p12-------------------
D|-------------------------------12-12-14--------------------------------12-14-------------
A|-----------------------------------------------------------------------------------------
E|-----------------------------------------------------------------------------------------



E|-----------------------------------------------------------------------------------------
B|-------------------------------------------------------------15~-------------------------
G|----12p9----12-12p9----12p9----12h14-------12-14-14b16-14p12-----------------------------
D|-10------10---------10------10-------12h14-----------------------------------------------
A|-----------------------------------------------------------------------------------------
E|-----------------------------------------------------------------------------------------



E|-----------------------------------------------------------------------------------------
B|-------------------------------------10-12-12h13-13-13-12-10-8-10b12-10------------------
G|----12p9----12-12p9----12p9----12h14-----------------------------------------------------
D|-10------10---------10------10-----------------------------------------------------------
A|-----------------------------------------------------------------------------------------
E|-----------------------------------------------------------------------------------------



E|-----------------------------------------------------------------------------------------
B|-----8-10-10b12-10b12-10--------------------------------------15-------------------------
G|-8s9----------------------------------------------------12-14----------12-14b16-14~-12-12
D|--------------------------------------12----12-14-12-14----------12h14-------------------
A|--------------------------------12-14----14----------------------------------------------
E|--------------------------12-15----------------------------------------------------------



E|-----------------------------------------------------------------------------------------
B|----------------------------------------------------------------------------15-----------
G|-16-16-16-16-12-12-7-7-9-9-12-9-7-9-7-5-7-16-16-16-16-12-12-12-7-9-12-14-17--------------
D|----------------------------------------------------------------------------12-----------
A|-14-14-14-14-10-10-5-5-7-7-10-7-5-7-5-3-5-14-14-14-14-10-10-10-5-7-10-12-15--------------
E|-----------------------------------------------------------------------------------------
963 exibições

Comentários 0

Consegui tocarAinda não conseguiram tocar essa música. Seja o primeiro!
    Não consegui tocar
    Exibir acordes »
    publicidade
    fechar