Salisbury Hill

Peter Gabriel

 Peter Gabriel
Tom: B
		
*-- PLEASE NOTE ------------------------------------------------------------*
* This work is simply the author's own interpretation of the named song.    *
* It should be for private/study use only.                                  *

*---------------------------------------------------------------------------*


CD:	Dunno, found it on some old cassette tape
Tabber:	Roger Olofsson (*)

Intro riff:

Play this once first


E------------------------------------|-----------------------------------|
B--------2---4h5--5--4---------------|--4--5--4--2-----------------------|
G--3--4--3---4----4--4---------------|--4--4--4--3-----------------------|
D--4--4------4h6--6--4---------------|--4--6--4--4-----------------------|
A------------------------------------|-----------------------------------|
e------------------------------------|-----------------------------------|


Then play this 5 times

E------------------------------------|-----------------------------------|
B--------2---5--7--4-----------------|--4--5--4--2-----------------------|
G--3--4--3---4--4--4-----------------|--4--4--4--3-----------------------|
D--4--4------6--6--4-----------------|--4--6--4--4-----------------------|
A------------------------------------|-----------------------------------|
e------------------------------------|-----------------------------------|


Then comes this and lyrics start

E------------------------------------|-----------------------------------|
B--4---2---4--4----4---4-------------|-----------------------------------|
G--4---3---4--4----------------------|-----------------------------------|
D--4---4---4--4--4---4---4-----------|-----------------------------------|
A------------------------------------|-----------------------------------|
e------------------------------------|-----------------------------------|



E------------------------------------|-----------------------------------|
B--4---2---4--4-----4---4------------|-----------------------------------|
G--4---3---4--4----------------------|-----------------------------------|
D--4---4---4--4---4---4---4----------|-----------------------------------|
A------------------------------------|-----------------------------------|
e------------------------------------|-----------------------------------|

                 I could see the city lights


E--4--2--4--4----4--4----------------|-----------------------------------|
B--4--2--4--4------------------------|-----------------------------------|
G--4--3--4--4---4--4--4--------------|-----------------------------------|
D-----------------(actually you can strum the chords G#m F# as well)-----|
A------------------------------------|-----------------------------------|
e------------------------------------|-----------------------------------|

                Wind was blowing, time stood still


E--4--2--4--4----4---4---------------|-----------------------------------|
B--4--2--4--4------------------------|-----------------------------------|
G--4--3--4--4---4---4--4-------------|-----------------------------------|
D------------------------------------|-----------------------------------|
A------------------------------------|-----------------------------------|
e------------------------------------|-----------------------------------|

                 Eagle flew out of the night


E------------------------------------|-----------------------------------|
B--4---2---4--4----4---4-------------|-----------------------------------|
G--4---3---4--4----------------------|-----------------------------------|
D--4---4---4--4--4---4---4-----------|-----------------------------------|
A------------------------------------|-----------------------------------|
e------------------------------------|-----------------------------------|

                 He was something to observe


E------------------------------------|-----------------------------------|
B--4---2---4--4----4---4-------------|-----------------------------------|
G--4---3---4--4----------------------|-----------------------------------|
D--4---4---4--4--4---4---4-----------|-----------------------------------|
A------------------------------------|-----------------------------------|
e------------------------------------|-----------------------------------|

                 Came in close, I heard a voice


E--4--2--4--4----4---4---------------|-----------------------------------|
B--4--2--4--4------------------------|-----------------------------------|
G--4--3--4--4---4---4--4-------------|-----------------------------------|
D------------------------------------|-----------------------------------|
A------------------------------------|-----------------------------------|
e------------------------------------|-----------------------------------|

              Standing, stretching every nerve


E--4--2--4--4-----4---4--------------|-----------------------------------|
B--4--2--4--4------------------------|-----------------------------------|
G--4--3--4--4---4---4---4------------|-----------------------------------|
D------------------------------------|-----------------------------------|
A------------------------------------|-----------------------------------|
e------------------------------------|-----------------------------------|

               I had to listen had no choice


E--4--2--4--4-----4---4--------------|-----------------------------------|
B--4--2--4--4------------------------|-----------------------------------|
G--4--3--4--4---4---4---4------------|-----------------------------------|
D------------------------------------|-----------------------------------|
A------------------------------------|-----------------------------------|
e------------------------------------|-----------------------------------|

              I did not believe the information


E--4--2--4--4-----4---4--------------|-----------------------------------|
B--4--2--4--4------------------------|-----------------------------------|
G--4--3--4--4---4---4---4------------|-----------------------------------|
D------------------------------------|-----------------------------------|
A------------------------------------|-----------------------------------|
e------------------------------------|-----------------------------------|

              Just had to trust imagination


E--4--2--4--4-----4---4--------------|-----------------------------------|
B--4--2--4--4------------------------|-----------------------------------|
G--4--3--4--4---4---4---4------------|-----------------------------------|
D------------------------------------|-----------------------------------|
A------------------------------------|-----------------------------------|
e------------------------------------|-----------------------------------|

               My heart going boom boom boom


E--4--2--4---------------------------|-----------------------------------|
B--4--2--4------5---------4----------|-9------2--------4h5--5--4---------|
G--4--3--4------4---------4----------|-9------3--------4----4--4---------|
D---------------7---------4----------|-9------4--------4h7--7--4---------|
A------------------------------------|-----------------back to intro riff|
e------------------------------------|-----------------------------------|

  Son, he said, grab your things I've come to take you home
1.826 exibições

Comentários 0

Composição: Kenyatta Saunders / Peter Gabriel
Esse não é o compositor? Avise-nos.
Consegui tocarAinda não conseguiram tocar essa música. Seja o primeiro!
    Não consegui tocar
    Exibir acordes »
    publicidade
    fechar