Meu Universo

PG

 PG
Tom: G
		
Solo: 3:29 - 3:52


e|------------------------------------7-7h8-7----------------------------------------|
B|-----8---8-10----10b-10-8^7h8-----8---------10-8-10b~~-10-8------7-8-10-10b-10-8~~-|
G|-5^7---7------7-----------------7------------------------------7-------------------|
D|-----------------------------------------------------------------------------------|
A|-----------------------------------------------------------------------------------|
E|-----------------------------------------------------------------------------------|



e|-----------------------------------------------------------------------------------|
B|-------------------------8^10-8-----8^10-8-10b~~-8-8h10--8p7-----8^10-10b-10-8~~~~-|
G|--9-7-7h9-----------------------9-7--------------------------9-7-------------------|
D|----------9-7----------------------------------------------------------------------|
A|--------------7-5h7-5--------------------------------------------------------------|
E|-----------------------------------------------------------------------------------|

Comentários 0

Composição: JESUS A. ROMERO / VERSÃO: PG
Esse não é o compositor? Avise-nos.
Contribuição: diego.araujo06
Exibir acordes »
publicidade
fechar