Planet Hemp

Mantenha O Respeito

261.741 exibições
Tom: G
Intro:

E|----------------------------------------
B|----------------------------------------
G|----------------------------------------
D|----------------------------------------
A|-------------4-4-4-0-4-0-2-2-2-0-2-0----
E|-2-2-2-0-2-0----------------------------


E|----------------------------------------
B|----------------------------------------
G|----------------------------------------
D|----------------------------------------
A|-5-5-5/7-7-5--------------4-4-4-0-4-0-2-
E|--------------2-2-2-0-2-0---------------


Riff Verso:

E|----------------------------------------
B|----------------------------------------
G|----------------------------------------
D|----------------------------------------
A|-------------4-4-4-0-4-0-2-2-2-0-2-0----
E|-2-2-2-0-2-0----------------------------


E|----------------------------------------
B|----------------------------------------
G|----------------------------------------
D|----------------------------------------
A|-5-5-5/7-7-5----------------------------
E|----------------------------------------


Riff 2:

E|----------------------------------------
B|----------------------------------------
G|----------------------------------------
D|----------------------------------------
A|-------------4-4-4-0-4-0-2--------------
E|-2-2-2-0-2-0----------------------------


Riff Refrão:

E|----------------------------------------
B|----------------------------------------
G|----------------------------------------
D|--4-4-4-4--6-6-5-4-4-4-4--2-4-6---------
A|--4-4-4-4--4-4-3-2-2-2-2--0-2-4---------
E|--2-2-2-2-------------------------------


(Intro)

(Riff Verso 4x)
D2 e preste atenção

Portas se abrem e aumentam o poder da visão

Isso é o meu compromisso

E se eu fumo ninguém tem nada com isso,

Não, não preciso da sua postura

A minha segurança eu faço na cintura

Um hipócrita vai e os valores não caem

É tanto preconceito que eu não aguento mais

Se você tem amor pelo que tem no peito

D2 mas mantenha o respeito

Refrão 4x:
(Riff Refrão)
D2 mas mantenha o respeito

(Riff Verso)

(Riff Verso 7x)
Eu canto dig dig dig

E o que acontece eu vou contar

Quando eu fumo marijuana como eu fico: chapado

Além do que me acontece de me chapar faz olhar

Me fascina, me ilumina deixa a cabeça no lugar

"No body move, nobody get hurt"

Ninguém se move e ninguém se machucará então

"Nobody move, nobody get hurt"

Respeito é bom e mantém os dentes no lugar

Eu fumo porque eu quero sentir os efeitos do ragga

Porque quem gosta disso já nasce no sangue,

Rapá eu ouço yelow, buju banton, cutty ranks e shabba

Porque eles querem me impedir de fazer fumaça então

Se liga meu irmão essa é a situação

Sinta o groove do ragga o peso do refrão

Refrão 4x:
(Riff Refrão)
D2 mas mantenha o respeito

Solo: Riff Verso 4x

(Riff Verso 8x)
Enquanto uns choram outros vem e os devoram

O meu pensamento não é como o seu

Tabaco ou maconha, o que te envergonha

Eu não sou menos digno porque fumo maconha

Me contem, me contem aonde eles se escondem

Atrás de leis que não favorecem vocês

Então por que não resolvem de uma vez

Ponham as cartas na mesa e discutam essas leis

Planet Hemp, meu irmão, os criminosos ?

Porque eu luto pelos direitos dos nossos, não !

Pessoas inocentes morrem e vão pruma gelada

Eu ouço " bang bang " e não vou fazer nada ?

Tem que parar com isso acabar com essa matança

Enquanto tem gente morrendo tem outros enchendo a pança

Mas se você quer brigar ponha a barba de molho

Comigo é dente por dente,meu irmão, olho por olho

(Riff 2)
Se você tem amor pelo que que tem no peito

D2 mas mantenha o respeito

Refrão 4x:
(Riff Refrão)
D2 mas mantenha o respeito

Solo 2: (Riff Refrão 4x)
    Composição: D2 / Marcelo D2 / Planet Hemp / Rafael / Rafael CrespoColaboração e revisão:
    • lazy.lancelot

    Comentários 2

    140 .
    • Gabriel Gabriel: Em 25/04/2014 13:42

      em ritmo de reggae fica muito daora
      C#m, Gm

    140 cancelar

    conseguiu tocar?

    • PS
    • Matheus
    • yago.anjos.01
    • leonardo.silvaoliveira.31
    • Antonio
    • Ricardinho
    • igor.taconi
    • •••

    covers

    Grave um vídeo tocando Mantenha O Respeito e mande pra gente!

    Ex.: http://www.youtube.com/watch?v=0IvSvIwGdwk
    ver covers de outras músicas »
    0:00 / 0:00

    Capítulos

      2 versões de violão dificuldade exibições contribuição e correção
      2 versões de guitarra dificuldade exibições contribuição e correção
      2 versões de cavaco dificuldade exibições contribuição e correção
      2 versões de teclado dificuldade exibições contribuição e correção
      3 versões de baixo exibições contribuição e correção
      1 versão de bateria exibições contribuição e correção
      1 versão de Guitar Proformatodownloadscontribuição
      play/pausefechar subir/descer velocidade
      6ª corda E5ª corda A4ª corda D3ª corda G2ª corda B1ª corda E
        acordes
        publicidad
        fechar
        ok