Banana não tem caroço

Quim Roscas e Zeca Estacionancio

 Quim Roscas e Zeca Estacionancio
Tom: G
		

    G                     D
--------3----------3-------------2-------------2--------------2-----------2----------3-----------3--
--------3----------3-------------3-------------3--------------3-----------3----------3-----------3--
--------0----------0-------------2-------------2--------------2-----------2----------0-----------0--
----------------------------0-------------------------------0---------------------------------------
--------------2----------------------------0----------------------------0----------------------2----
---3-------------------------------------------------------------------------------3----------------



      C	                      D	                                       G
------------0----------0----------2----------2----------2--------2----------3---------3-------------
------------1----------1----------3----------3----------3--------3----------3---------3-------------
------------0----------0----------2----------2----------2--------2----------0---------0-------------
--------------------0----------0---------------------0----------------------------------------------
------3----------------------------------0----------------------0-------------------2---------------
----------------------------------------------------------------------------3-----------------------


Refrão:
G	       D
Banana não tem caroço

Não tem caroço
	    G
Não tem, não tem (2x)

  C	          D
É como carne sem osso

Não tem caroço
	G
Mas sabe bem (2x)

G	           D
Estavam dois namorados

Muito agarrados
        G
Num bananal (2x)

   C                    D
Botou-lhe as saias p'ra baixo

Deu-lhe cu mamarracho
	    G
Ela até bateu mal (2x)
22.433 exibições

Comentários 0

Composição: Sabe quem é o compositor? Envie pra gente. Contribuição: Santos
Consegui tocarAinda não conseguiram tocar essa música. Seja o primeiro!
    Não consegui tocar
    Exibir acordes »
    publicidade
    fechar