Sistema Nervoso

Radicais Livres (RL)

Sem foto do Radicais Livres (RL) Compositor: Chico / Lando / Dema
Tom: E
		
1 - Intro A

e|-----------------------------------------------------------||
B|-----------------------------------------------------------||
G|-----------------------------------------------------------||
D|-5-3--5-2--5-1--5-0--2-0-2-3-------------------------------||
A|-5-3--5-2--5-1--5-0--2-0-2-3-------------------------------||
D|-5-3--5-2--5-1--5-0--2-0-2-3-------------------------------||


2 - Intro B

  |-------- 3x --------|
e|-----------------------------------------------------------||
B|-----------------------------------------------------------||
G|-----------------------------------------------------------||
D|-0-0----0-------0-2-----0-0----0-------0-2-----------------||
A|-0-0-5~-0-3-5-3-0-2-3---0-0-5~-0-3-5-3-0-2-----------------||
D|-0-0----0-3-5-3-0-2-----0-0----0-3-5-3-0-2-----------------||


3 - Canto

e|-----------------------------------------------------------||
B|-----------------------------------------------------------||
G|-----------------------------------------------------------||
D|-0-0----0-------0-2-----0-0----0-------0-2-----------------||
A|-0-0-5~-0-3-5-3-0-2-3---0-0-5~-0-3-5-3-0-2-3---------------||
D|-0-0----0-3-5-3-0-2-----0-0----0-3-5-3-0-2-----------------||


4 - Refrão

e|-----------------------------------------------------------||
B|-----------------------------------------------------------||
G|---------3-------------------------------------------------||
D|-0---5---3---5-3--5-2--5-1--5-0--2-0-2-3-------------------||
A|-0---5---3---5-3--5-2--5-1--5-0--2-0-2-3-------------------||
D|-0---5-------5-3--5-2--5-1--5-0--2-0-2-3-------------------||


5 - Canto 2

e|-----------------------------------------------------------||
B|-----------------------------------------------------------||
G|-----------------------------------------------------------||
D|-0-----2-----3-----5---------------------------------------||
A|-0-----2-----3-----5---------------------------------------||
D|-0-----2-----3-----5---------------------------------------||


1 - Intro A ( 8x )
2 - Intro B ( 1x )
3 - Canto   ( 8x )
1 - Intro A ( 4x )
3 - Canto   ( 8x )
4 - Refrão  ( 2x )
1 - Intro A ( 3x )
5 - Canto 2 ( 3x )
4 - Refrão  ( 4x )
1 - Intro A ( 3x )
505 exibições

Comentários 0

Composição: Chico
Esse não é o compositor? Avise-nos.
Contribuição: Ademir
Consegui tocarAinda não conseguiram tocar essa música. Seja o primeiro!
    Não consegui tocar
    Exibir acordes »
    publicidade
    fechar