Vento Negro

Ratto

 Ratto
Tom: D
		
Introdução : (D C G D) 2x


     D                                       C   
e||----------0-2---|-3-2-0-----|---2-3-2-3-3|-5-3-3-2-3-|-3-2-0-------|
B||:---0-2-3-----3-|-------3-2-|-3----------|-----------|-------3-2-0-|
G||--3-------------|-----------|------------|-----------|-------------|
D||----------------|-----------|------------|-----------|-------------|


   G                       D
e|---------0-|-7-7-7-5-3-|-3-2-2-3-2--||-3-2-0---------|-3-||
B|---0-2-3---|-8-8-8-7-5-|-5-3-3-5-3-:||-------3-2-0---|-2-||
G|-3---------|-----------|------------||-------------3-|-3-||
D|-----------|-----------|------------||---------------|---||


    D		     (Em)
[1] Onde a terra começar
A7			 D
    Vento negro gente eu sou
G		    A7
    Onde a terra terminar
G                  A7
    Vento negro eu sou

G			A7
[2] Quem me ouve vai contar
			 D
    Quero lutas, guerras não
G			A7
    Erguer bandeira sem matar
G		  A7  D  D4 D D7
    Vento negro é furacão...

	 	      G		        A
{Refrão} Com a vida o tempo, a trilha o sol	
		  F#m	        G                      A7 (E)  
	 Um vento forte se erguerá arrastando o que houver no chão
	       G              A
	 Vento negro, campo a fora, 
	       F#m              G              A7 (E)
	 Vai correr, quem vai embora tem que saber
	       D  
	 É viração...

G                        (Em)
[3] Nos montes vales que venci
A7                     D
    No coração da mata virgem
G                          A7
    Meu canto eu sei há de ouvir
G                 A7
    Em todo meu país

G                            A7
[4] Não creio em paz sem divisão
                             D
    De tanto amor que eu espalhei
G                        A7
    Em cada céu, em cada chão
G              A7    D  D4 D D7
    Minha alma lá deixei...     {Refrão} [Final]

		   G		  A7         D 
[Final] Quem vai embora tem que saber, é viração
		   G		  A > E > 
        Quem vai embora tem que saber
	      D     C    G    D
(Coral)	É viraçã... ã... ã... ão
	D    C    G    D
	Ã... ã... ã... ão

Obs. 1 : Como opção, depois do fim do coral, dá para retornar ao início
         da música e tocar sozinho as duas primeiras estrofes, sem
         ritmo, só marcando as notas!

     2 : Dá para enfeitar a música colocando notas suspensas em quarta
         entre as trocas de entonação!
27.250 exibições

Comentários 0

Composição: José Fogaça
Esse não é o compositor? Avise-nos.
Contribuição: Juninh00 Correções: ju cesino »
Exibir acordes »
publicidade
fechar