Na Tua Presença

Renascer Praise

 Renascer Praise
Tom: A
		
Intro: A/B  E/B  B  B (4x)

       A  E/B  B  B  A  C#m7  B  B (2x)
E|----|-------------------------------------------------|
B|----|----------18~--16-15-16~---16-15----15-15--------|
G|-4~-|---/15-15------------------------17--------------|
D|----|-------------------------------------------------|
A|----|-------------------------------------------------|
E|----|-------------------------------------------------|



E|------------------------------------------------------|
B|---------------18~--16-15-16~---16-15----15-15----/15-|
G|--------/15-15------------------------17--------------|
D|------------------------------------------------------|
A|------------------------------------------------------|
E|------------------------------------------------------|



E|------------------------------------------------------|
B|---------------18~--16-15-16~---16-15----15-15--------|
G|--------/15-15------------------------17--------------|
D|------------------------------------------------------|
A|------------------------------------------------------|
E|------------------------------------------------------|



E|------------------------------------------------------|
B|---------/15-12-13-14-15-12-13-14-15-/15-^18----------|
G|------------------------------------------------------|
D|------------------------------------------------------|
A|------------------------------------------------------|
E|------------------------------------------------------|



E|------------------------------------------------------|
B|---------------18~--16-15-16~---16-15-----------------|
G|--------/15-15------------------------17-15~----------|
D|------------------------------------------------------|
A|------------------------------------------------------|
E|------------------------------------------------------|


B9                       F#/B
Na Tua presença, Senhor
                            E/B                B9
Eu quero ser digno de permanecer, purifica-me
                              F#/B
Em santidade Senhor

Quero encontrar Teu mover
     E/B                         C#m7
Para sempre estar, sempre estar

        B/D#        E9
Com serafins, querubins
     B/D#
Na presença dos anjos
C#m7                  B/D#         E9
Ser transformado no Espírito receber
        A9                 F#sus F#       A/B  E/B  B9  B9
Do sentimento que habita em Ti,       JESUS
                         F#/B
Na Tua presença, Senhor
                            E/B                B9
Eu quero ser digno de permanecer, purifica-me
                     F#/B
Em santidade Senhor

Quero encontrar Teu mover
     E/B                         C#m7
Para sempre estar, sempre estar

         B/D#      E9
Com serafins, querubins
     B/D#
Na presença dos anjos
C#m7                  B/D#         E9
Ser transformado no Espírito receber
         A9                 F#sus F#      B9
Do sentimento que habita em Ti,      JESUS

E9     B/D#
Alfa, Leão de Judá
E9       G#m7
Digno do selo abrir             (2x)
D9         A9/C#
Minha vida sempre Te dar
    D9              F#sus F#
Com toda força e louvor

        B9                E/B
A Ti a honra, glória força e poder
          G#m7                F#sus4  F#
Toda a riqueza majestade e louvor
31.516 exibições

Comentários 0

Composição: Apóstolo Estevam Hernandes
Esse não é o compositor? Avise-nos.
Contribuição: Roger Correções: Eliel e mais 2 »
Exibir acordes »
publicidade
fechar