Uma Menina Me Ensinou

Renato Russo

 Renato Russo
Tom: C
		
Intro 4x: Dm  C  Am

                    Dm  C
Uma menina me ensinou
                   Am
Quase tudo que eu sei
                  Dm
Era quase escravidão
    C                       Am
Mas ela me tratava como um rei
                    Dm  C
Ela fazia muitos planos
                     Am
Eu só queria estar ali
                   Dm  C
Sempre ao lado dela
                  Am
Eu não tinha onde ir
                     Dm   C
Mas, egoísta que eu sou,
                  Am
Me esqueci de ajudar
                      Dm  C
A ela como ela me ajudou
                    Am
E não quis me separar
                      Dm
Ela também estava perdida
      C                          Am
E por isso se agarrava a mim também
                   Dm  C
E eu me agarrava a ela
                              Am
Porque eu não tinha mais ninguém
                     Dm          C           Am
E eu dizia: Ainda é cedo, cedo, cedo, cedo, cedo
                      Dm          C           Am
Ah eu dizia: Ainda é cedo, cedo, cedo, cedo, cedo

( Dm  C  Am )

                  Dm  C
Sei que ela terminou
                  Am
O que eu não comecei
                    Dm  C
E o que ela descobriu
                       Am
Eu aprendi também, eu sei
                       Dm  C
Ela falou: - Você tem medo
                                  Am
Aí eu disse: - Quem tem medo é você
                      Dm  C
Falamos o que não devia
                        Am
Nunca foi dito por ninguém
                         Dm  C
ela me disse: - Eu não sei
                            Am
Mais o que eu  sinto por você
               Dm  C                      Am
Vamos dar um tempo, outro dia a gente se vê
                     Dm          C           Am
E eu dizia: Ainda é cedo, cedo, cedo, cedo, cedo
                     Dm          C           Am
E eu dizia: Ainda é cedo, cedo, cedo, cedo, cedo

Uma menina ...

E|---------------------------------------------------------------------------------------
B|-15/10--10-10-10--10-10-10--10-10-10--10-10-10--10-10-10--10-10-10--10-10-10--10-10-10-
G|---------------------------------------------------------------------------------------
D|---------------------------------------------------------------------------------------
A|---------------------------------------------------------------------------------------
E|---------------------------------------------------------------------------------------


me tratava como um rei....

E|-------------------------------------------------------------------------------5--------------4----5-
B|-10-10-10--10-10-10--10-10-10--10-10-10--5--10--15/10--5---5--15/10--1----5----5---15/10-
G|---------------------------------------------------------------------2--1--2--------------2----2-----
D|-----------------------------------------------------------------------------------------------------
A|-----------------------------------------------------------------------------------------------------
E|-----------------------------------------------------------------------------------------------------



E|------------------------------------------------------------------------------------------------------
B|-5--10--15/10--5--10--5----------------------------------10--15/10--5--10--5---10--15/10--20-19-15-10-
G|---------------------------2-2-2-2-2-2-2-2-2-2-2-2-2-2------------------------------------------------
D|------------------------------------------------------------------------------------------------------
A|------------------------------------------------------------------------------------------------------
E|------------------------------------------------------------------------------------------------------



E|-------------------------------------------------------------------------------------
B|---5---5-3---10-15-10-15--15/10-5-10-15/10----8--3--------10--15-----5--10-----------
G|----2-----2------------------------------------------------------2--7------------2--
D|-------------------------------------------------------------------------------------
A|-------------------------------------------------------------------------------------
E|-------------------------------------------------------------------------------------



            Dm      C       Am     Dm  C     Am      Dm     C       Am       Dm    C      Am
E|----1-----------------------1-----------------------1------------------------1-------------
B|----3-------1------1-------3-----1-----1---------3------1-------1--------3------1------1---
G|-2--------------2-------2------------2---------2---------------2--------2-------------2---
D|-----------2------2--------------2-----2-----------------2-------2----------------2-----2--
A|-----------3----------------------3------------------------3------------------------3------
E|-------------------------------------------------------------------------------------------



E|-----------------------------------------------10--12----14--10--------------------------15-14------------
B|-15--10---5--10--15--10--5--10---5--8--8------10----------10--15--9--13-10-15------15---------------------
G|--------------------------------------2---------------------------------------------------------------14-
D|----------------------------------------------------------------------------------------------------------
A|----------------------------------------------------------------------------------------------------------
E|----------------------------------------------------------------------------------------------------------



E|----15-14-----------15-14-------15-14-------15-14-------15-14-------15-14-------15-14---------------------
B|-------------15--------------15-----------15------------15-----------15------------15----------15---------
G|----------------14-------------14-----------14------------14-----------14------------14----------14------
D|----------------------------------------------------------------------------------------------------------
A|----------------------------------------------------------------------------------------------------------
E|----------------------------------------------------------------------------------------------------------



E|----------------------------------------------------------------------------------------------------------10-
SI-10-10-10-10-10-10-10-10-10-10-10-10-10-10-10-10-10-10-10-5--10--15--10--5---10-----10---
G|------------------------------------------------------------------------------------------2---9-------------
D|--------------------------------------------------------------------------------------------------7-12-------
A|-------------------------------------------------------------------------------------------------------------
E|-------------------------------------------------------------------------------------------------------------



E|-----10-----------10----------10-----------------------------------------------------------------------------
B|-----------10-10------10-10-----10-5-10-10-10--------8------15-10-----10-15-15-10-15-15-10-15-15-10-15-15----
G|------------------------------------------------------------7-----7------------7----------------------------
D|----------------------------------------------------------6----------7------------7--------------------------
A|-------------------------------------------------------------------------------------------------------------
E|-------------------------------------------------------------------------------------------------------------


             Dm       C   Am   Dm   C     Am    Dm    C    Am  Dm  C     Am
E|----1--------------------1--------------------1------------------1-------------------------------------------
B|----3---------1-----1---3------1-----1------3------1-----1---3-----1-----1-----------------------------------
G|---2---------------2---2-------------2------2-------------2---2------------2--------------------------------
D|---------------2----2-----------2-----2--------------2-----2----------2-----2--------------------------------
A|---------------3-----------------3---------------------3----------------3------------------------------------
E|-------------------------------------------------------------------------------------------------------------


Versão 2:
  harmônicos                          Sem harmônico      harmônico

E|-----8-------------8--------------|------------------|------------|
B|----------------------------------|------------------|------------|
G|-7------7------7------7-------7---|-7-9-10----7-9----|-7----------|
D|---7------7------7------7---7---7-|---------7-----10-|---7--12----|
A|--------------------------7-------|------------------|---------12-|
E|----------------------------------|------------------|------------|

  Agora vem uma sesão de harmônicos

E|------------------------------------------------------------------|
B|------------------------------------------------------------------|
G|-7--------------------7-----------------7-----------------12--7---|
D|---7-7-7-7-7...-7---7---7-12----12--7-----7--12--------12-------7-|
A|------------------7----------12------7----------12--12------------|
E|------------------------------------------------------------------|



E|-----------------------------------------------7------------------|
B|-------------------------------------------------7----------------|
G|-------7-7--------------------7--------------7------7-------------|
D|---7-------7----7--12-----------7----7----7----7------7----7-7-7..|
A|-7------------7-------12-12...-----7----7---------------7---------|
E|------------------------------------------------------------------|



E|---------------------------------------------|--------8-7-8-5~----|
B|-----------------------------------------7---|----8-6-------------|
G|---7----7---7-----7---------------7----7-----|--7-----------------|
D|-7----7---------7---7-----7-----7----7-------|--------------------|
A|--------------7---------7-----7--------------|--------------------|
E|---------------------------------------------|--------------------|
                                                   | Dfrão 3X |
E|-----------------|-----------------------------------12---7-------|
B|--------0--------|--------------------------------12--------7-----|
G|------2---2------|--7--------7---------------12---------------7---|
D|----2------------|----7----7---7---7------12----------------------|
A|--0--------------|-------7-------7-----12-------------------------|
E|-----------------|------------------------------------------------|



E|----------------------------|-7-------|---------------------------|
B|----------------------------|---7-----|---------------------------|
G|---7---------7-----12-------|-----7---|----------------7----------|
D|-7-----7---7----------12----|-------7-|-7-7-7...-7---7---7--12----|
A|-----7----------12-------12-|---------|------------7-----------12-|
E|----------------------------|---------|---------------------------|
                              |7 x|
E|------------------------------------------------------------------|
B|------------------------------------------------------------------|
G|-12---------7----7-------7-------7--------------------------7-----|
D|----------7----7---7---7---7---7---7-----7------12---12-------7---|
A|----12--7------------------------------7-----12---------12------7-|
E|------------------------------------------------------------------|



E|----------------------------------|-------8-7-8-5~-|---------------|
B|----------------------------------|---8-6----------|------0--------|
G|-12-------7-----7-----------------|-7--------------|----2---2------|
D|----12------7-----7------7-----12-|----------------|--2------------|
A|-----------------------7----12----|----------------|---------------|
E|----------------------------------|----------------|---------------|
                                       (refrão 3x)
18.187 exibições

Comentários 7

  • Christian Christian: Postado em 02/04/2014 11:27

    Só posers colocam Uma Menina me Ensinou
    o nome da música é Ainda é Cedo !!

  • Ricardinho Ricardinho: Postado em 04/03/2014 18:33

    uma menina me ensinou ta fodax ne kkkkkkkk

  • david.lucas.58958343 david.lucas.58958343: Postado em 19/02/2014 20:39

    eu ainda dizia era cedo cedo cedo cedo cedo

  • Sarah Sarah: Postado em 10/01/2014 15:37

    O nome da música é "AINDA É CEDO" !!!!!!!!!!!!!!!!!!!!

  • Cleiton Cleiton: Postado em 30/04/2013 22:28

    POSERRRRR LEVEL INFINITO!AINDA É CEDO O NOME DA MÚSICA ANIMAL!

  • PaulaAndrade PaulaAndrade: Postado em 04/09/2011 10:36

    O nome dessa musica é ainda é cedo . idiota ¬¬

  • beato beato: Postado em 20/08/2011 14:53

    animal o nome dessa musica é ainda é cedo

Composição: Sabe quem é o compositor? Envie pra gente. Contribuição: ronaldilhon Correções: Wellington , 201levis e mais 2 »
Exibir acordes »
publicidade
fechar