Por Toda Vida

Rildo & Riany

 Rildo & Riany
Tom: G
		
Intro: G, D/F#, C, D 


e|---3-3----3-3----5-5-----5-5---5h7-8-8-7-5-3---3-7h9--10-9-7------|
b|-3------3-----3-------3------3---------------5--------------------|
g|------------------------------------------------------------------|



e|---3-3----3-3----5-5-----5-5---5h7-8-8-7-5-3---3-12-10-8-10-8-7-5-|
b|-3------3-----3-------3------3---------------5--------------------|
g|------------------------------------------------------------------|


      G
Só consigo pensar em você
     Bm
Tá demais em mim essa paixão
          Am               Am7/G
Os meus olhos só querem te ver
      D                 D4 D
Você mora no meu coração
      G    
É uma pena que você não queira
    Bm
Dividir comigo esse amor
       Am                    Am7/G       D D4 D
Mas eu não desisto assim tão fácil de você

      G                   D/F#
Se me toca, eu te vejo, é tanto desejo
Am  Am7/G       D    D4 D
Não vejo outra saída
      G                 D/F#
Eu te amo, te quero, te sinto, te espero
Am Am7/G   D    D4 D
Por toda vida

            G  
Ficar sem você é saudade demais
              Bm
Sem os seus carinhos não vivo jamais
           Am                    Am7/G
Se você soubesse o quanto eu te quero
          D    D4 D
Ficaria comigo
            G  
Ficar sem você é saudade demais
              Bm
Sem os seus carinhos não vivo jamais
           Am                    Am7/G
Se você soubesse o quanto eu te quero
          D
Ficaria comigo
         G   
Por toda vida


e|---3-3----3-3----5-5-----5-5---5h7-8-8-7-5-3---3-7h9--10-9-7------|
b|-3------3-----3-------3------3---------------5--------------------|
g|------------------------------------------------------------------|



e|---3-3----3-3----5-5-----5-5---5h7-8-8-7-5-3---3-12-10-8-10-8-7-5-|
b|-3------3-----3-------3------3---------------5--------------------|
g|------------------------------------------------------------------|


      G                   D/F#
Se me toca, eu te vejo, é tanto desejo
Am  Am7/G       D    D4 D
Não vejo outra saída
      G                 D/F#
Eu te amo, te quero, te sinto, te espero
Am Am7/G   D    D4 D
Por toda vida

            G  
Ficar sem você é saudade demais
              Bm
Sem os seus carinhos não vivo jamais
           Am                    Am7/G
Se você soubesse o quanto eu te quero
          D    D4 D
Ficaria comigo
            G  
Ficar sem você é saudade demais
              Bm
Sem os seus carinhos não vivo jamais
           Am                    Am7/G
Se você soubesse o quanto eu te quero
          D
Ficaria comigo
         G    D
Por toda vida
         G    D
Por toda vida
         G
Por toda vida
4.333 exibições

Comentários 0

Composição: Sabe quem é o compositor? Envie pra gente. Contribuição: romulo_ms Correções: Coca e mais 2 »
Consegui tocarAinda não conseguiram tocar essa música. Seja o primeiro!
    Não consegui tocar
    Exibir acordes »
    publicidade
    fechar