Casa Das Prima

Roniel e Rafael

Sem foto do Roniel e Rafael Compositor: João Márcio / Fabiano
Tom: A
		
Intro:

   A   E         F#m      D           A          E      ( Bm  A  D )
E|-----------2-----------------------------------------2---------|
B|-2-3-5---5---5-2--------2h3---3h2---2------2-3-5---5---5-3-2---|
G|-----------------2----------------4--------------------------3-|
D|---------------------------------------------------------------|
A|---------------------------------------------------------------|
E|---------------------------------------------------------------|


A               E             F#m   D
Deixe as minhas coisas no portão
A         E           Bm  D
Daqui a pouco vou buscar
A         E            F#m
Pena que durou pouco tempo

E|----------------------------|
B|----------------------------|
G|----------------------------|
D|-----4-6-7-6-4--------------|
A|--7------------7-5-4--------|
E|---------------------7-4-5--|


A                                     E
É que eu sou assim memo  sou assim memo
                 D     E       A
Se a mulher começa sortá o veneno
                              E
Isso me irrita  isso me irrita
              D       E            A
Vaso pra gandaia e to di novo na fita
                          E
Sou assim memo sou assim memo
                 D     E       A
Se a mulher começa sortá o veneno
                              E
Isso me irrita  isso me irrita
              D           E        A
Vaso pra gandaia e to di novo na fita

A         E           F#m
Hoje eu durmo lá pra cima
              D                 A
Na cas das primas na casa das prima
            E            F#m
Whisky do bom e mulher bonita
              D         E          A
Na casa das primas  na casa das prima
        E                  F#m
Uma do lado e a outra pra riba
              D                   A
Na casa das primas  na casa das primas
     E                F#m
Se casar não é minha sina
         D        E         A
Eu vou morar na casa das primas

Solo: A  E  F#m  D  A  E  F#m  D  A  E  F#m  D  A  E  F#m  D  A  E
378 exibições

Comentários 0

Composição: João Márcio / Fabiano
Esse não é o compositor? Avise-nos.
Contribuição: Roniel
Consegui tocarAinda não conseguiram tocar essa música. Seja o primeiro!
    Não consegui tocar
    Exibir acordes »
    publicidade
    fechar