A Lenda (Acústico Mtv)

Sandy e Junior

 Sandy e Junior
Tom: E
		
Verso 1: (00:11) 

e|-------------------------4-|
B|-------7-------------7-----|
G|---6-----6-------6-----6---|     (2x)
D|-7---7-----7---7---7-------|
A|---------------------------|
E|---------------------------|


F#m               C#m      
Bem lá no céu uma lua existe
F#m                 C#m      
Vivendo só no seu mundo triste
F#m                 C#m
O seu olhar sobre a Terra lançou
F#m                   C#m
E veio procurando por amor

(00:31)  

e|---------------------4-----4-----4-------|
B|-------7---------------------------------|
G|---6-----6-------6-----6-----6-----6---6-|   (4x)
D|-7---7-----7---7---7-----7-----7-----7---|
A|-----------------------------------------|
E|-----------------------------------------|


F#m                  C#m 
Então o mar, frio e sem carinho
F#m                 C#m         
Também cansou de ficar sozinho
F#m                   C#m
Sentiu na pele aquele brilho tocar, e 
F#m                   C#m
Pela lua foi se apaixonar

Pré-refrão
  
Bm                           F#m              
Luz que banha a noite e faz o sol adormecer    
G#m                  A     B5
Mostra como eu amo você                        

Refrão: (01:02) 

           C        G
Se a lenda dessa paixão    
      D#m          Am         
Faz sorrir ou faz chorar    
C      G           Am     B5   
   O coração é quem sa.....be  
          C      G          
Se a lua toca no mar        
    D#m       Am           
Ela pode nos tocar          
F                          
Pra dizer que o amor      
        A          B5        
não se aca.........be                       

Introdução: (01:24)

e|-------------------------4-|
B|-------7-------------7-----|
G|---6-----6-------6-----6---|       (2x)
D|-7---7-----7---7---7-------|
A|---------------------------|
E|---------------------------|


(01:35)    

e|---------------------4-----4-----4-------|
B|-------7---------------------------------|
G|---6-----6-------6-----6-----6-----6---6-|      (4x)
D|-7---7-----7---7---7-----7-----7-----7---|
A|-----------------------------------------|
E|-----------------------------------------|


F#m              C#m      
Se cada um faz a sua história
F#m                C#m       
A nossa pode ser feliz também
F#m                  C#m
Se o coração diz que sim à paixão
F#m                     C#m
Como pode o outro dizer não?

Pré-refrão  

Bm                           F#m              
Luz que banha a noite e faz o sol adormecer    
G#m                  A     B5
Mostra como eu amo você                        

Refrão: (02:06) 

           C        G
Se a lenda dessa paixão    
      D#m          Am         
Faz sorrir ou faz chorar    
C      G           Am     B5   
   O coração é quem sa.....be  
          C      G          
Se a lua toca no mar        
    D#m       Am           
Ela pode nos tocar          
F                          
Pra dizer que o amor      
        A          B5        
não se aca.........be                           

Base do solo: C G D#m Am C G Am B5
              C G D#m Am F A  B5  

Solo: (02:28)

e|-------------------------------------|----------------------------|
B|-------------------------------------|-6/8-8888888-8--------5-----|
G|----------------------------5/7-5-4~-|-7/9-9999999-9----5-7---7-5-|
D|---------3--------2-----5-7----------|----------------7-----------|
A|-----3-5---5~~--5---3-7--------------|----------------------------|
E|-3h5---------------------------------|----------------------------|         


(02:35)

||-------------------------------------------------------------||
||-------------------6----5-6-6-6/8-8-8~-10-10-10-10~-8-6-5-5~~||
||-------5-----5-7-9---7-9-------------------------------------||
||-6-7-9---7-9-------------------------------------------------||
||-------------------------------------------------------------||
||-------------------------------------------------------------||  


Obs: a parte que está entre ||(a tablatura de cima) faz rapidinho, tem que prestar atenção para 
poder pegar o tempo.

(02:43)    

e|-8---8---8---8---8---8---8---8---------7----7-----7-----7-----|
B|---8---6---5-----------------------------8----8-----8-----8---|
G|---------------7---5---4---5---7-----9-----9----9-----9-----9-|
D|----------------------------------10--------------------------|
A|--------------------------------------------------------------|
E|--------------------------------------------------------------|


Refrão: (02:47) 
           C        G
Se a lenda dessa paixão    
      D#m          Am         
Faz sorrir ou faz chorar    
C      G           Am     B5   
   O coração é quem sa.....be  
          C      G          
Se a lua toca no mar        
    D#m       Am           
Ela pode nos tocar          
F                          
Pra dizer que o amor      
        A          B5        
não se aca.........be       
           C        G
Se a lenda dessa paixão    
      D#m          Am         
Faz sorrir ou faz chorar    
C      G           Am     B5   
   O coração é quem sa.....be  
          C      G          
Se a lua toca no mar        
    D#m       Am           
Ela pode nos tocar          
F                          
Pra dizer que o amor      
        A          B5        
não se aca.........be                           
     
Final: G5 A5 3 vezes A5
62.371 exibições

Comentários 1

  • pauloluke pauloluke: Postado em 18/09/2012 14:04

    meu Deus! quem foi que enviou isso?? te dou um conselho: vá ouvr a música direito =P

Exibir acordes »
publicidade
fechar