Eyes Of The Devil

Seether

 Seether
Tom: G#
		
Tabbed by: Andrew P.
Email: *
============================================================================
*This Song Is Very Easy. It Mostly Repeats Parts*

Verse

e|-------------------------------------------------------------------------|
B|-------------------------------------------------------------------------|
G|-------------------------------------------------------------------------|
D|-------------------------------------------------------------------------|
A|--6-6-6-6-6-6-6-6--4-4-4-4-4-4-4-4---------------------------------------|
E|-8-8-8-8-8-8-8-8--6-6-6-6-6-6-6-6----------------------------------------|


Chorus
 "Run.."| "Eyes.."| "Keep.."|"Dreams..."|

|-------|---------|---------|-----------|
|-------|---------|---------|-----------|
|--5----|---------|---------|-----------| (Strum Each About 8 Times.
|--5----|---5-----|---6-----|---5-------| The Words Show What Lyric You 
|--3----|---5-----|---6-----|---5-------| Change The Chord)
|-------|---3-----|---4-----|---3-------|


Bridge
(Let Each Note Ring)

e|-------------------------------------------------------------------------|
B|-------------------------------------------------------------------------|
G|-5-----------------------------------------------------------------------|
D|-5--5--2--5--------------------------------------------------------------|
A|-3--5--2--5--------------------------------------------------------------|
E|----3--0--3--------------------------------------------------------------|


(The Part That Says, "Jesus; Save Me" Is Played The Same Way As The Verse.)

End With:

"From Me..."
e|---|
B|---|
G|-5-|
D|-5-|
A|-3-|
E|---|
1.756 exibições

Comentários 0

Composição: Rodney Britt / Sameer / Verlon Thompson / W. T. Davidson
Esse não é o compositor? Avise-nos.
Consegui tocarAinda não conseguiram tocar essa música. Seja o primeiro!
    Não consegui tocar
    Exibir acordes »
    publicidade
    fechar