Born To Be Wild

Steppenwolf

 Steppenwolf
                                                   
G||------|---------------------|-------------------|
D||------|---------------------|-------------------|
A||------|---------------5-----|--7----------------|
E||------|------------7-----7--|-------------------|


                                                                
---------------------|-------------------|---------------------|
---------------------|-------------------|---------------------|
---------------5-----|--7----------------|---------------5-----|
------------7-----7--|-------------------|------------7-----7--|


                                               
------------------9--|----7-----9--7----------|
---------------------|-------9----------------|
--7------------7-----|---------------------5--|
---------------------|------------------7-----|


                                                 
------------------------|-----------------------|
------------------------|--------------------5--|
--7------7--------5--7--|----7----7-------5-----|
------------7--7--------|--------------7--------|


                                                 
------------------------|--------------4--------|
------------------------|-----------------7--5--|
--7------7--------5--7--|----7----7-------------|
------------7--7--------|-----------------------|


                                                 
------------------------|-----------------------|
------------------------|--------------------5--|
--7------7--------5--7--|----7----7-------5-----|
------------7--7--------|--------------7--------|


                                                                    
------------------------|-------------------|----------------------|
------------------------|-------------------|----------------------|
--7------7--------5--7--|----7--------------|----------------------|
------------7--7--------|-------------------|--3------3--5------5--|


                                                  
--------9--9--7-----------|----------------------|
-----9-----------9-----7--|----------------------|
--------------------7-----|----------------------|
--0-----------------------|--3------3--5------5--|


                                                  
--------9--9--7-----------|----------------------|
-----9-----------9-----7--|----------------------|
--------------------7-----|----------------------|
--0-----------------------|--3------3--5------5--|


                                                  
--------9--9--7-----------|----------------------|
-----9-----------9-----7--|----------------------|
--------------------7-----|----------------------|
--0-----------------------|--3------3--5------5--|


                                                                      
----------------------|----------------------|-----------------------|
----------------------|----------------------|--------------------5--|
----------------5-----|--7-------------5--7--|----7----7-------5-----|
--0----------7-----7--|-------------7--------|--------------7--------|


                                                
-----------------------|--------------4--------|
-----------------------|-----------------7--5--|
--7------7-------5--7--|----7----7-------------|
------------7----------|-----------------------|


                                                
-----------------------|-----------------------|
-----------------------|--------------------5--|
--------7--------5--7--|----7----7-------5-----|
-----------7--7--------|--------------7--------|


                                                  
-------------------------|-----------------------|
-------------------------|-----------------------|
--7----7--7--------5--7--|----7----7-------------|
-------------7--7--------|--------------7--5--3--|


                                                 
--------------------|---------9--9--7-----------|
--------------------|-----7-9----------9-----7--|
--------------------|---------------------7-----|
--3--------5--------|--0------------------------|


                                                  
----------------------|--------9--9--7-----------|
----------------------|-----9-----------9-----7--|
----------------------|--------------------7-----|
--3------3--5------5--|--0-----------------------|


                                                  
----------------------|--------9--9--7-----------|
----------------------|-----9-----------9-----7--|
----------------------|--------------------7-----|
--3------3--5------5--|--0-----------------------|


                                                
--------------------|--------------------------|
--------------------|--------------------------|
--------------------|--------------------------|
--3--------5--------|--0--0--0--0--0--0--0--0--|


                                                      
--------------------------|--------------------------|
--------------------------|--------------------------|
--------------------------|--------------------------|
--0--0--0--0--0--0--0--0--|--0--0--0--0--0--0--0--0--|


                                                      
--------------------------|--------------------------|
--------------------------|--------------------------|
--------------------------|--------------------------|
--3--3--3--3--3--3--3--3--|--3--3--3--3--3--3--3--3--|


                                                      
--------------------------|--------------------------|
--------------------------|--------------------------|
--------------------------|--------------------------|
--5--5--5--5--5--5--5--5--|--3--3--3--3--3--3--3--3--|


                                       
--------------------------------------|
--------------------------------------|
--------------------------------------|
--3--3--3--3--3--3--3--3--3--3--3--3--|


                                                        
-----------------------------------|-------------------|
-----------------------------------|-------------------|
-----------------------------7--5--|--7----------------|
--0--0--0--0--0--0--0--0--0--------|-------------------|


                                                            
-------------------|-------------------|-------------------|
-------------------|-------------------|-------------------|
--5----------------|--7----------------|--5----------------|
-------------------|-------------------|-------------------|


                                                            
-------------------|-------------------|-------------------|
-------------------|-------------------|-------------------|
--7----------------|--5----------------|--7----------------|
-------------------|-------------------|-------------------|


                                                                    
-------------------|-----------------------|-----------------------|
-------------------|-----------------------|--------------------5--|
--5----------------|--7------7-------5--7--|----7----7-------5-----|
-------------------|------------7----------|--------------7--------|


                                                 
------------------------|--------------4--------|
------------------------|-----------------7--5--|
--7------7--7-----5--7--|----7----7-------------|
---------------7--------|-----------------------|


                                                 
------------------------|-----------------------|
------------------------|--------------------5--|
--7------7--7-----5--7--|----7----7-------5-----|
---------------7--------|--------------7--------|


                                                 
------------------------|-----------------------|
------------------------|-----------------------|
--7------7--7-----5--7--|----7----7-------------|
---------------7--------|--------------7--5--3--|


                                                   
--------------------------|-----------------------|
--------------------------|-----------------------|
--------7--7--5-----5--7--|----7----7--7-------7--|
--0--0-----------7--------|-----------------7-----|


                                                  
------------------------|------------------4--7--|
------------------------|------------------------|
--7------7--7--7-----5--|--7--7----7--7----------|
------------------7-----|------------------------|


                                                      
--9--9--9--9--9-----7-----|--9--9--9--9--9-----7-----|
-----------------9-----9--|-----------------9-----9--|
--------------------------|--------------------------|
--------------------------|--------------------------|


                                                      
--9--9--9--9--9-----7-----|--9--9--9--9--9-----7-----|
-----------------9-----9--|-----------------9-----9--|
--------------------------|--------------------------|
--------------------------|--------------------------|


                                                      
--9--9--9--9--9--9--9--9--|--9--9--9--9--9--9--9--9--|
--------------------------|--------------------------|
--------------------------|--------------------------|
--------------------------|--------------------------|


                                                      
--9--9--9--9--9--9--9--9--|--9--9--9--9--9--9--9--9--|
--------------------------|--------------------------|
--------------------------|--------------------------|
--------------------------|--------------------------|


                                                  
--9----------------|----|------------------------|
-------------------|----|------------------------|
-------------------|----|--7------7--------5--7--|
-------------------|----|------------7--7--------|


                                                  
------------------------|------------------------|
---------------------5--|------------------------|
----7----7--------5-----|--7------7--------5--7--|
------------7--7--------|------------7--7--------|


                                                  
------------------------|------------------------|
------------------------|------------------------|
----7----7--5-----------|--7------7--------5--7--|
---------------7--5--3--|------------7--7--------|


                                                  
------------------------|------------------------|
---------------------5--|------------------------|
----7----7--------5-----|--7------7--------5--7--|
------------7--7--------|------------7--7--------|


                                              
------------------------|--------------------|
------------------------|--------------------|
----7----7--5-----------|--------------------|
---------------7--5--3--|--3--------5--------|


                                                    
--------9--9--7-----------|------------------------|
-----9-----------9-----7--|------------------------|
--------------------7-----|------------------------|
--0-----------------------|--3--3----3--5--5----5--|


                                                
--------9--7--------------|--------------------|
-----9--------9-----7--5--|--------------------|
-----------------7--------|--------------------|
--0-----------------------|--3--------5--------|


                                                          
--------------------------------|------------------------|
-----9/-14--14--12--------------|------------------------|
--------------------14------12--|------------------------|
--0---------------------12------|--3--3----3--5--5----5--|


                                                      
--------------------------|--------------------------|
--------------------------|--------------------------|
--------------------------|--------------------------|
--0--0--0--0--0--0--0--0--|--0--0--0--0--0--0--0--0--|


                                                      
--------------------------|--------------------------|
--------------------------|--------------------------|
--------------------------|--------------------------|
--0--0--0--0--0--0--0--0--|--3--3--3--3--3--3--3--3--|


                                                      
--------------------------|--------------------------|
--------------------------|--------------------------|
--------------------------|--------------------------|
--3--3--3--3--3--3--3--3--|--5--5--5--5--5--5--5--5--|


                                                   
--------------------------|-----------------------|
--------------------------|-----------------------|
--------------------------|----------7-------7----|
--3--3--3--3--3--3--3--3--|--0----0-------0-------|


                                                               
----------------------|-------------------|-------------------|
----------------------|-------------------|-------------------|
-----------------5----|--7----------------|--5----------------|
--0------0----0-------|-------------------|-------------------|


                                                            
-------------------|-------------------|-------------------|
-------------------|-------------------|-------------------|
--7----------------|--5----------------|--7----------------|
-------------------|-------------------|-------------------|


                                                                  
-------------------|-------------------|-------------------------|
-------------------|-------------------|-----------------12------|
--5----------------|--7----------------|--5----------14------14--|
-------------------|-------------------|-------------------------|


                                                  
--9------9-----7-------|-------7-----9--7--------|
------------9-------9--|----9-----9--------9--7--|
-----------------------|-------------------------|
-----------------------|-------------------------|


                                                     
--------------------------|-------------------------|
--------------------------|-------------------------|
--7--7--7--7--7--7--7--7--|--7--7--7--7--7----------|
--------------------------|-----------------5--7----|


                                                  
--9------9-----7-------|----9--7-----------------|
------------9-------9--|----------9--7--9--7-----|
-----------------------|----------------------9--|
-----------------------|-------------------------|


                                                  
-------------------------|--9------9-----7-------|
-------------------------|------------9-------9--|
--7--7--7--7--7----------|-----------------------|
-----------------5--7----|-----------------------|


                                                  
-------------------------|--9------9-----7-------|
-------------------------|------------9-------9--|
--7--7--7--7--7----------|-----------------------|
-----------------5--7----|-----------------------|


                                                  
-------------------------|--9------9-----7-------|
-------------------------|------------9-------9--|
--7--7--7--7--7----------|-----------------------|
-----------------5--7----|-----------------------|


                                                     
--------------------------|-------------------------|
--------------------------|-------------------------|
--7--7--7--7--7--7--7--7--|--7--7--7-----------5----|
--------------------------|-----------0--5--7-------|


                     
-------------------||
-------------------||
--7----------------||
-------------------||

Comentários (0)

Composição: Geoff Kelly / Gordon Clifford
Esse não é o compositor? Avise-nos.
Contribuição: Cris Correções: Ray Jackson »
  1. Tudo Que Você Quiser - Luan Santana Manteve-se 6.122 exibições
  2. Lepo Lepo - Psirico Manteve-se 4.394 exibições
  3. Mozão - Lucas Lucco Manteve-se 4.201 exibições
  4. Logo Eu - Jorge e Mateus Manteve-se 4.020 exibições
  5. Pra Você - Onze:20 Manteve-se 4.019 exibições
  6. Gaveta - Fernando e Sorocaba Manteve-se 3.769 exibições
  7. Só Os Loucos Sabem - Charlie Brown Jr. Manteve-se 3.071 exibições
  8. Tempo Perdido - Legião Urbana Manteve-se 2.714 exibições
  9. Fui Fiel - Gusttavo Lima Manteve-se 2.713 exibições
  10. Domingo de Manha - Marcos e Belutti Manteve-se 2.289 exibições
  1. Jorge e Mateus- Manteve-se 23.884 exibições
  2. Legião Urbana- Manteve-se 21.696 exibições
  3. Luan Santana- Manteve-se 17.411 exibições
  4. Charlie Brown Jr.- Manteve-se 17.352 exibições
  5. Fernandinho- Manteve-se 14.841 exibições
  6. Católicas- Manteve-se 11.201 exibições
  7. Thalles Roberto- Manteve-se 11.085 exibições
  8. Gusttavo Lima- Manteve-se 11.009 exibições
  9. Victor e Leo- Manteve-se 10.721 exibições
  10. Bruno e Marrone- Manteve-se 10.310 exibições

Cifras e tabs

Fórum Cifra Club

Aprenda

Cifra Club News

Mais Serviços Cifra Club ID

Studio Sol

©1996 - 2014 Cifra Club · o primeiro, maior e mais acessado do Brasil · 329 mil músicas · 6.0 milhões pessoas cadastradas

publicidade
fechar