Born To Be Wild

Steppenwolf

 Steppenwolf
Introdução

Parte 1

G|-------------------------7h9-7---9-7--------|
D|-------------------------------9------------|
A|-2/5--7--2/5--7--2/5--7--------------2/-----|
E|--------------------------------------------|

Primeira parte

Get your motor runnin...

Parte 1

G|--------------------------------------------|
D|--------------------------5-----------------|
A|-7--7-7---5--7-7--7-5---5-------------------|
E|--------7-------------7---------------------|

G|--------------------------------------------|
D|--------------------------------------------|
A|-7--7-7---5--7-7--7-5-----------------------|
E|--------7-------------7-5\------------------|

Parte 2

G|--------------------------------------------|
D|--------------------------5-----------------|
A|----------5--7-7--7-5---5---7---------------|
E|-0--0-0-7-------------7---------------------|

G|--------------------------------------------|
D|--------------------------------------------|
A|-7--7-7---5--7-7--7-5-----------------------|
E|--------7-------------7-5-------------------|

Refrão

Yeah, darlin,gonna make it happen...

Parte 1 ( tocar 3x )

G|------------------9-9-7---------------------|
D|----------------9-------9-------------------|
A|--------------7-----------7\----------------|
E|-3--3--5-5--5-------------------------------|

Parte 2

G|--------------------------------------------|
D|--------------------------------------------|
A|--------------------5-----------------------|
E|-3--3--5-5--5--0--7-------------------------|

Segunda parte

I like smoke and lightnin...

Parte 1

G|--------------------------------------------|
D|--------------------------5-----------------|
A|-7--7-7---5--7-7--7-5---5-------------------|
E|--------7-------------7---------------------|

G|--------------------------------------------|
D|--------------------------------------------|
A|-7--7-7---5--7-7--7-5-----------------------|
E|--------7-------------7-5\------------------|

Parte 2

G|--------------------------------------------|
D|--------------------------5-----------------|
A|----------5--7-7--7-5---5---7---------------|
E|-0--0-0-7-------------7---------------------|

G|--------------------------------------------|
D|--------------------------------------------|
A|-7--7-7---5--7-7--7-5-----------------------|
E|--------7-------------7-5-------------------|

Refrão 2

Yeah, darlin,gonna make it happen...

Parte 1 ( tocar 3x )

G|------------------9-9-7---------------------|
D|----------------9-------9-------------------|
A|--------------7-----------7\----------------|
E|-3--3--5-5--5-------------------------------|

Parte 2

G|--------------------------------------------|
D|--------------------------------------------|
A|--------------------------------------------|
E|-3--3--5-5--5--0-0-0-0--0-0-0-0-------------|

Terceira parte

Like a true nature's child,we were born...

Parte 1

G|--------------------------------------------|
D|--------------------------------------------|
A|--------------------------------------------|
E|-0-0-0-0--0-0-0-0--0-0-0-0--0-0-0-0---------|

G|--------------------------------------------|
D|--------------------------------------------|
A|--------------------------------------------|
E|-3-3-3-3--3-3-3-3--3-3-3-3--3-3-3-3---------|

Parte 2

G|--------------------------------------------|
D|--------------------------------------------|
A|--------------------------------------------|
E|-5-5-5-5--5-5-5-5--5-5-5-5--5-5-5-5---------|

G|--------------------------------------------|
D|--------------------------------------------|
A|--------------------------------------------|
E|-3-3-3-3--3-3-3-3--3-3-3-3--3-3-3-3---------|

G|--------------------------------------------|
D|--------------------------------------------|
A|------------------------------5-------------|
E|-0--0-0-0--0-0-0--0-0-0-0-0-7---------------|

Parte 3

Born to be wild,Born to be wild... 

G|--------------------------------------------|
D|--------------------------------------------|
A|-7---7--5--7--5--7--5-----------------------|
E|--------------------------------------------|

Solo de guitarra

Parte 1

G|--------------------------------------------|
D|--------------------------5-----------------|
A|-7--7-7---5--7-7--7-5---5-------------------|
E|--------7-------------7---------------------|

G|--------------------------------------------|
D|--------------------------------------------|
A|-7--7-7---5--7-7--7-5-----------------------|
E|--------7-------------7-5\------------------|

Parte 2

G|--------------------------------------------|
D|--------------------------5-----------------|
A|-7--7-7---5--7-7--7-5---5-------------------|
E|--------7-------------7---------------------|

G|--------------------------------------------|
D|--------------------------------------------|
A|-7--7-7---5--7-7--7-5-----------------------|
E|--------7-------------7-5-------------------|

Parte 3

G|--------------------------------------------|
D|--------------------------------------------|
A|-7-7--5-----7-7--7-7-7-7----7--7-7-7-7------|
E|--------7-5---------------7------------7----|

G|--------------------------------------------|
D|-----------12-------------------------------|
A|-7-7-7--14----------------------------------|
E|--------------------------------------------|

Parte 4 ( tocar 4x )

G|--------------------------------------------|
D|-14-14-14-14-14-------12--------------------|
A|----------------12h14-----------------------|
E|--------------------------------------------|

Parte 5 ( tocar 4x )

G|--------------------------------------------|
D|-14-14-14-14--14-14-14-14-------------------|
A|--------------------------------------------|
E|--------------------------------------------|

Parte 6
   .
G|--------------------------------------------|
D|-14-----------------------------------------|
A|--------------------------------------------|
E|--------------------------------------------|

Quarta parte

Get your motor runnin...

Parte 1

G|--------------------------------------------|
D|--------------------------5-----------------|
A|-7--7-7---5--7-7--7-5---5-------------------|
E|--------7-------------7---------------------|

G|--------------------------------------------|
D|--------------------------------------------|
A|-7--7-7---5--7-7--7-5-----------------------|
E|--------7-------------7-5\------------------|

Parte 2

G|--------------------------------------------|
D|--------------------------5-----------------|
A|----------5--7-7--7-5---5---7---------------|
E|-0--0-0-7-------------7---------------------|

G|--------------------------------------------|
D|--------------------------------------------|
A|-7--7-7---5--7-7--7-5-----------------------|
E|--------7-------------7-5-------------------|

Refrão 3

Yeah, darlin,gonna make it happen...

Parte 1 ( tocar 3x )

G|------------------9-9-7---------------------|
D|----------------9-------9-------------------|
A|--------------7-----------7\----------------|
E|-3--3--5-5--5-------------------------------|

Parte 2

G|--------------------------------------------|
D|--------------------------------------------|
A|--------------------------------------------|
E|-3--3--5-5--5--0-0-0-0--0-0-0-0-------------|

Quinta parte

Like a true nature's child,we were born...

Parte 1

G|--------------------------------------------|
D|--------------------------------------------|
A|--------------------------------------------|
E|-0-0-0-0--0-0-0-0--0-0-0-0--0-0-0-0---------|

G|--------------------------------------------|
D|--------------------------------------------|
A|--------------------------------------------|
E|-3-3-3-3--3-3-3-3--3-3-3-3--3-3-3-3---------|

Parte 2

G|--------------------------------------------|
D|--------------------------------------------|
A|--------------------------------------------|
E|-5-5-5-5--5-5-5-5--5-5-5-5--5-5-5-5---------|

G|--------------------------------------------|
D|--------------------------------------------|
A|--------------------------------------------|
E|-3-3-3-3--3-3-3-3--3-3-3-3--3-3-3-3---------|

G|--------------------------------------------|
D|--------------------------------------------|
A|------------------------------5-------------|
E|-0--0-0-0--0-0-0--0-0-0-0-0-7---------------|

Parte 3

Born to be wild,Born to be wild... 

G|--------------------------------------------|
D|--------------------------------------------|
A|-7-5-7--5--7--5--7--5-----------------------|
E|--------------------------------------------|

Solo de baixo 

Parte 1

G|-----7-7h9-7---7-------7---7h9-7------------|
D|-7h9---------9---9-7h9---9-------9-7--------|
A|--------------------------------------------|
E|--------------------------------------------|

G|--------------------------------------------|
D|--------------------------------------------|
A|-7-7-7-7--7-7-7-7--7-7-7-7-7----------------|
E|------------------------------5-7-----------|

Parte 2

G|-9---7---9-7--------------------------------|
D|---9---9-----9-7-9-7-5----------------------|
A|--------------------------------------------|
E|--------------------------------------------|

Parte 3 Final ( tocar 5x )

G|--------------------------------------------|
D|--------------------------------------------|
A|-7-7-7-7--7-7-7-7--7-7-7-7-------5----------|
E|---------------------------0-5-7------------|

Parte 4

G|--------------------------------------------|
D|--------------------------------------------|
A|-7-7--7-7\----------------------------------|
E|--------------------------------------------|

Comentários 0

Composição: Geoff Kelly / Gordon Clifford
Esse não é o compositor? Avise-nos.
Contribuição: Cris Correções: Reginaldo , Ray Jackson e mais 2 »
publicidade
fechar