Avalanche Intro

Still Remains

 Still Remains
Tom: F
		
Intro: i dont claim to have the rythm for the open notes correct so don't quote me on 
:-) ( * means tremolo picking)

e|--------------------------------------------------------------------|
B|--------------------------------------------------------------------|
G|--------------------------------------------------------------------|
D|-----------------------------------------------5h7-7----------------|
A|-8\-0--0000--0000--0000000--0-00000--0000--000-5h7-7----------------|
D|----0--0000--0000--0000000--0-00000--0000--000-5h7-7----------------|

p.m.  .  ....  ....  .......  . .....  ....  ...


e|--------------------------------------------------------------------|
B|--------------------------------------------------------------------|
G|--------------------------------------------------------------------|
D|-----------------------------------------------5h8-8----------------|
A|----0--0000--0000--0000000--0-00000--0000--000-5h8-8----------------|
D|----0--0000--0000--0000000--0-00000--0000--000-5h8-8----------------|

p.m.  .  ....  ....  .......  . .....  ....  ...

Guitar one

e|--------------------------------------------------------------------|
B|--------------------------------------------------------------------|
G|--------------------------------------------------------------------|
D|-----------------------------------------------7h10-10--------------|
A|----0--0000--0000--0000000--0-00000--0000--000-7h10-10--------------|
D|----0--0000--0000--0000000--0-00000--0000--000-7h10-10--------------|

p.m.  .  ....  ....  .......  . .....  ....  ...

Guitar two

e|-----------------------------------------------------------------------|
B|-----------------------------------------------------------------------|
G|-----------------------------------------------------------------------|
D|-----------------------------------------------------7h10-10-----------|
A|----0--8-8-7-5---0000--3-5-7-5-3-5-8-8-7-5-0000--000-7h10-10-----------|
D|----0------------0000----------------------0000--000-7h10-10-----------|

p.m.  .  * * * *   ....  * * * * * * * * * * ....  ...

guitar one

e|--------------------------------------------------------------------|
B|--------------------------------------------------------------------|
G|--------------------------------------------------------------------|
D|-----------------------------------------------10h12-12-------------|
A|----0--0000--0000--0000000--0-00000--0000--000-10h12-12-------------|
D|----0--0000--0000--0000000--0-00000--0000--000-10h12-12-------------|

p.m.  .  ....  ....  .......  . .....  ....  ...


guitar two

e|-----------------------------------------------------------------------|
B|-----------------------------------------------------------------------|
G|-----------------------------------------------------------------------|
D|-----------------------------------------------------10h12-12----------|
A|----0--8-8-7-5---0000--3-5-7-5-3-5-8-8-7-5-0000--000-10h12-12----------|
D|----0------------0000----------------------0000--000-10h12-12----------|

p.m.  .  * * * *   ....  * * * * * * * * * * ....  ...
240 exibições

Comentários 0

Consegui tocarAinda não conseguiram tocar essa música. Seja o primeiro!
    Não consegui tocar
    Exibir acordes »
    publicidade
    fechar