Jennie é um Gênio

Temas de TV

 Temas de TV
Tom: F
		
Riff 1

e ----------------------------------------------
B ---3-3---5-3-----3-3---5-3-----3-3---5-3------
G -------5-----5-------5-----5-------5-----5----  2x
D -5-------------5-------------5-------------3--
A ----------------------------------------------
E ----------------------------------------------



e ---------------------------------------------------------------------------
B -6---6-6-6-4---4---4-4-4---------------------------------------------------
G ---6---------6---5-------6-5-6-3-6-6-6-5-3-5-5-5---------------------------
D ---------------------------------------------------------------------------
A ---------------------------------------------------------------------------
E ---------------------------------------------------------------------------


Repete-> Riff1
15.187 exibições

Comentários 0

Exibir acordes »
publicidade
fechar