Popeye

Temas de TV

 Temas de TV
Tom: C
		

------5-5----5----------5--------
---7-------------8--7------------
---------------------------------
---------------------------------
---------------------------------
---------------------------------



5---7------7---10---9---7--------
-------8-------------------10----
---------------------------------
---------------------------------
---------------------------------
---------------------------------



----7-----7---10--9--7--5--7--5--
10-----8------------------------7
---------------------------------
---------------------------------
---------------------------------
---------------------------------



----5-5---5-7-7--9-10------------
-7-------------------------------
---------------------------------
---------------------------------
---------------------------------
---------------------------------

Comentários 2

Composição: Sabe quem é o compositor? Envie pra gente. Contribuição: Marcel Rovaris Correções: filty »
Exibir acordes »
publicidade
fechar