Tema da Seleção Brasileira (Rede Globo)

Temas de TV

 Temas de TV
Tom: A
		
Tab:


e|---12--9--12--9------------9-------------9----|
B|--------------------10--12-----12--10---------|
G|----------------------------------------------|
D|----------------------------------------------|
A|----------------------------------------------|
E|----------------------------------------------|



e|---12--9--12--9------------9-------------10----|
B|--------------------10--12-----12--10----------|
G|-----------------------------------------------|
D|-----------------------------------------------|
A|-----------------------------------------------|
E|-----------------------------------------------|



e|---14--10--14--10-----------------12-14--16--14-------14---|
B|----------------------12--14---15---------------------14---|
G|-----------------------------------------------------------|
D|-----------------------------------------------------------|
A|-----------------------------------------------------------|
E|-----------------------------------------------------------|



e|--14--12---------------12-------|
B|------------15-14--12-------10--|
G|--------------------------------|
D|--------------------------------|
A|--------------------------------|
E|--------------------------------|

Comentários 2

Exibir acordes »
publicidade
fechar