Do Ré Mi Fá

Temas Diversos

Sem foto do Temas Diversos Compositor: Temas Diversos
Tom: D
		
E|--------2-3-3-3-----------------------|
B|--3 5--------------3--5--3--5--5--5---|
G|--------------------------------------|
D|--------------------------------------|
A|--------------------------------------|
E|--------------------------------------|


E|------5-3-2-3-3---------2-3-3-3-------|
B|--3--------------3--5-----------------|
G|--------------------------------------|
D|--------------------------------------|
A|--------------------------------------|
E|--------------------------------------|
41.998 exibições

Comentários 0

Composição: Sabe quem é o compositor? Envie pra gente. Contribuição: Test Correções: lucascostama , maou mama e mais 6 »
Exibir acordes »
publicidade
fechar