Do Ré Mi Fá

Temas Diversos

Sem foto do Temas Diversos Compositor: Temas Diversos
Tom: D
		
E|--------2-3-3-3-----------------------.
B|--3 5--------------3--5--3--5--3--3--3.
G|--------------------------------------.
D|--------------------------------------.
A|--------------------------------------.
E|--------------------------------------.


E|------5-3-2-2-2---------2-3-3-3-------.
B|--3--------------3--5-----------------.
G|--------------------------------------.
D|--------------------------------------.
A|--------------------------------------.
E|--------------------------------------.
39.002 exibições

Comentários 0

Composição: Sabe quem é o compositor? Envie pra gente. Contribuição: Test Correções: Cainã , Gabriel e mais 5 »
Exibir acordes »
publicidade
fechar