Game Of Thrones Theme

Temas Diversos

Sem foto do Temas Diversos Compositor: Ramin Djawadi
Tom: F
		
Intro: C5


E|----------------------------------------------|
B|----------------------------------------------|
G|-----------0----------0----------0----------0-|
D|-------1h3--------1h3--------1h3--------1h3---|
A|---3-3--------3-3--------3-3--------3-3-------|
E|----------------------------------------------|



E|----------------------------------------------|
B|----------------------------------------------|
G|-----------0----------0----------0----------0-|
D|-------2h3--------2h3--------2h3--------2h3---|
A|---3-3--------3-3--------3-3--------3-3-------|
E|----------------------------------------------|


Tema Principal:


E|------------------------------|
B|------------------------------|
G|------------------------------|
D|---5-------1--3--5----1--3--0-|
A|-------3-----------3----------|
E|------------------------------|



E|----------------------------------------------|
B|----------------------------------------------|
G|-----------0----------0----------0----------0-|
D|-------1h3--------1h3--------1h3--------1h3---|
A|---3-3--------3-3--------3-3--------3-3-------|
E|----------------------------------------------|



E|---------------------------|
B|---------------------------|
G|---------------------------|
D|---3------1-0-3-----1-0----|
A|------1----------1-------3-|
E|---------------------------|



E|----------------------------------------------|
B|----------------------------------------------|
G|-----------0----------0----------0----------0-|
D|-------1h3--------1h3--------1h3--------1h3---|
A|---3-3--------3-3--------3-3--------3-3-------|
E|----------------------------------------------|



Oitava Acima:


E|--------------------------------------------------------------|
B|---8-----4/6--8------4h6---3----------3----------3----------3-|
G|---8--5--5/7--8---5---------------3h5--------3h5--------3h5---|
D|------5-----------5-----------5-5--------5-5--------5-5-------|
A|--------------------------------------------------------------|
E|---------------------------3----------------------------------|



E|----1---------1---------------|
B|----------4\3----------4p3----|
G|-------3-----------3--------5-|
D|----------------------------5-|
A|----1-----------------------3-|
E|------------------------------|


Mais uma oitava Acima:


E|---15-----15-------11h13--15------11h13----10-|
B|--------------13--------------13-----------11-|
G|-------0------------------------------------0-|
D|----------------------------------------------|
A|-------------------------------------------10-|
E|----------------------------------------------|



E|---13--------11-----------10-----------8---------6---------8--|
B|--------11-------11-----------11----------8---------6------8--|
G|----------------------10-----------10--------8---------7---8--|
D|-----------------------------------------------------------10-|
A|---13---------------------------------------------------------|
E|--------------------------------------------------------------|



Refrão:


E|---8-------------6h8----6------------4h6----4--------------------3-|
B|---------9--9-----------------6--6----------------1--1--------1--4-|
G|------8--------------------5-------------------1-----------3-----5-|
D|---6----------------------------------------3-----------1--------5-|
A|------------------------6----------------------------3-----------3-|
E|-------------------------------------------------------------------|



E|--------------------------------------------------|
B|----------4--4----------4---------4---------4--4--|
G|-------3-------------3---------3---------5--------|
D|----------------------------3---------5-----------|
A|------------------6-------------------------------|
E|---4----------------------------------------------|



E|---8-------------6h8----6------------4h6----4--------------------|
B|---------9--9-----------------6--6----------------1--1--------1--|
G|------8--------------------5-------------------1-----------3-----|
D|---6----------------------------------------3-----------1--------|
A|------------------------6----------------------------3-----------|
E|-----------------------------------------------------------------|



E|----3------------------------------------------|
B|----4----------4--4----------4-----------------|
G|----5-------3-------------3---------3----------|
D|----5-----------------------------------1p0----|
A|----3------------------6---------5-----------3-|
E|--------4--------------------------------------|

Comentários 15

  • wander_kennedy wander_kennedy: Postado em 13/04/2014 00:42

    Agora ta certa

    • Igor Igor: Postado em 21/04/2014 16:16

      eu achava a outra melhor cara

    • Mikael Mikael: Postado em 16/12/2014 - 21:56

      eu que editei! :3

  • geovane280595 geovane280595: Postado em 09/05/2013 17:50

    Valeu pela dica do L aê pessoal

  • noplaye123 noplaye123: Postado em 27/04/2013 09:56

    como faz o dedilhado ?

  • gordolageano gordolageano: Postado em 16/09/2012 01:53

    como se faz hammer on na 0 tipo -------0h--------- .-.

    • Jeff Jeff: Postado em 15/10/2012 23:28

      (--0h-2-4-- ) toca a corda solta, e pressiona o 2 sem tocar a corda depois toca o 4.

  • IcAro0KuN IcAro0KuN: Postado em 08/02/2012 21:00

    p significa pull, por exemplo 5p4, vc toka na quinta casa e puxa a corda com dedo na quarta

  • annnurb annnurb: Postado em 12/10/2011 23:46

    o que significa p?

    • Daniel Daniel: Postado em 11/04/2014 07:48

      pullof

Exibindo 10 de 15 comentários Mostrar mais ver todos »
Composição: Sabe quem é o compositor? Envie pra gente. Contribuição: robson525 Correções: Mikael e mais 1 »
Exibir acordes »
publicidade
fechar