Temas Diversos

Parabéns pra você

10.531 exibições
G|---------------------------------------------------------|
D|---------------------------------------------------------|
A|-------------------------------3-3-3-3-3-3-3-8-7-5-3-2-2-|
E|--0-3-2---0-5-3---7-10-8-7-3-3---------------------------|

G|---------------------------------------------------------|
D|---------------------------------------------------------|
A|-------------------------------3-3-3-3-3-3-3-8-7-5-3-2-2-|
E|--0-3-2---0-5-3---7-10-8-7-3-3---------------------------|

Comentários 0

conseguiu tocar?

  • thejoavicent
  • ichigo.leal.7
0:00 / 0:00

Capítulos

    1 versão de baixoexibiçõescontribuição e correção
    1 versão de gaitaexibiçõescontribuição e correção
    2 versões de partiturasformatodownloadscontribuição
    play/pausefechar subir/descer velocidade
    6ª corda E5ª corda A4ª corda D3ª corda G2ª corda B1ª corda E
      Exibir acordes
      Feedback
      publicidad
      fechar
      ok