Getting Better

The Beatles

 The Beatles
Tom: C
		
(intro)  F   C

(solo 3x)

E|---------------------------------------------------------------------------------------------
B|-12--------12--------12----------------12----12------------------------12-------------------
G|---------------------------------------------14----------------------------------------------
D|---------------------------------------------------------------------------------------------
A|---------------------------------------------------------------------------------------------
E|---------------------------------------------------------------------------------------------



E|---------------------------------------------------------------------------------------------
B|-12--------12--------12-------------12-------12---------12------------------------------------
G|---------------------------------------------14----------------------------------------------
D|---------------------------------------------------------------------------------------0-----
A|---------------------------------------------------------------------------------------------
E|---------------------------------------------------------------------------------------------


C                            F/G
It's getting better all the time
   G           C/G        G              C/G
I used to get mad at my school (No, I can't complain)
      G             C/G              G           C/G
The teachers that taught me weren't cool  (No, I can't complain)
          G        C/G    G         C/G
You're holding me down, turning me around
 G          C/G            G  C/G  G
Filling me up with your rules

      C                           F
I've got to admit it's getting better
          Em              F
A little better all the time
   C                          F
I have to admit it's getting better
              Em              F       Fmaj7   G
It's getting better since you've been mine

C    G         C/G         G  C/G
Me used to be angry young man
     G        C/G         G   C/G
Me hiding me head in the sand
     G           C/G      G      C/G
You gave me the word I finally heard
      G         C/G        G
I'm doing the best that I can

 F C/E  F  C/E   F  C/E F  C/E  C
Getting so much better all the time
 C                           F     Em              Fmaj7
It's getting better all the time, better, better, better
 C                           F      Em             Fmaj7   G
It's getting better all the time, better, better, better

   G
I used to be cruel to my woman                          G F C G
I beat her and kept her apart from the things that she loved
Man I was mean but I'm changing my scene
And I'm doing the best that I can

I admit it's getting better
A little better all the time (can't get no worse)
Yes, I admit it's getting better
It's getting better since you've been mine
 F C/E   F  C/E  F C/E F   F/G  C
Getting so much better all the time

Comentários 2

  • myguitarweeps myguitarweeps: Postado em 27/03/2012 16:39

    eu sempre fico melor com essa musica

    • montt99 montt99: Postado em 11/08/2012 14:58

      ''getting better'' hahaha

Composição: Harry Warren / John Lennon / Paul McCartney / W. Jean / William Steinberg
Esse não é o compositor? Avise-nos.
Contribuição: Guizão Correções: henrique e mais 1 »
Exibir acordes »
publicidade
fechar