Miss Nothing

The Pretty Reckless

 The Pretty Reckless Compositor: Ben Phillips / The Pretty Reckless
Intro:
Gb|------------------------|
Db|------------------------|
Ab|------------------------|
Eb|-0h2---------0h2--------|

Gb|----------------------------------------------------------------|
Db|----------------------------------------------------------------|  (2x)
Ab|-------------0----------------------------0---0-0-0-0-0-2-2-2-2-|
Eb|-0h2-2-2-0h2---0h2-2-2-0-2\---0h2-2-2-0h2---2-------------------|

Verso 1:
Gb|-----------------------------------------------------|
Db|-----------------------------------------------------|  (2x)
Ab|-------------------------------------0-0-0-0-2-2-2-2-|
Eb|-0h2---------0h2---------0h2-------------------------|

Gb|-------------------------------------------------------------|
Db|-------------------------------------------------------------|
Ab|-------------0---------2-2-0-0---------------0-0-0-0-2-2-2-2-|
Eb|-0h2-2-2-0-2---0-2-2-2---------0h2-2-2-0-2-0-----------------| 

Gb|-------------------------------------------------------------|
Db|-------------------------------------------------------------|
Ab|-------------0---------2-2-0-0-------------------------------|
Eb|-0h2-2-2-0-2---0-2-2-2---------0h2-2-2-0-2-0-5-5-5-5-3-3-3-3-| 

Pré-Refrão:
Gb|-----------------------------------------------------------------|
Db|-----------------------------------------------------------------|  (2x)
Ab|-----------------5-5-5-5-------------------------5-5-5-5---------|
Eb|-5-5-5-5-3-3-3-3---------5-5-5-5-5-5-5-5-3-3-3-3---------5-5-5-5-|

Gb|-----------------------------------------------------------------|
Db|-----------------------------------------------------------------|
Ab|-----------------5-5-5-5-----------------------------------------|
Eb|-5-5-5-5-3-3-3-3---------5-5-5-5-3-3-3-3-3-3-3-3-3-3-3-3-3-3-3-3-|

Refrão:
Gb|-----------------------------------------------------------------|
Db|-----------------------------------------------------------------|  (2x)
Ab|---------------------------------5-5-5-5-5-5-5-5-----------------|
Eb|-0-0-0-0-0-0-0-0-2-2-2-2-2-2-2-2-----------------5-5-5-5-5-5-5-5-|

Gb|-----------------------------------------------------------------|
Db|-----------------------------------------------------------------|
Ab|-------------------------------------------------5-5-5-5-5-5-5-5-|
Eb|-5-5-5-5-5-5-5-5-0-0-0-0-0-0-0-0-2-2-2-2-2-2-2-2-----------------| 

Gb|---------------------------------|
Db|---------------------------------|
Ab|---------------------------------|
Eb|-5-5-5-5-5-5-5-5-0-0-0-0-0-0-0-0-| 

Gb|-------------------------------------------------------------|
Db|-------------------------------------------------------------|
Ab|-------------0---------2-2-0-0---------------0-0-0-0-2-2-2-2-|
Eb|-0h2-2-2-0-2---0-2-2-2---------0h2-2-2-0-2-0-----------------|

Verso 2:
Gb|-----------------------------------------------------|
Db|-----------------------------------------------------|  (2x)
Ab|-------------------------------------0-0-0-0-2-2-2-2-|
Eb|-0h2---------0h2---------0h2-------------------------|

Gb|-------------------------------------------------------------|
Db|-------------------------------------------------------------|
Ab|-------------0---------2-2-0-0---------------0-0-0-0-2-2-2-2-|
Eb|-0h2-2-2-0-2---0-2-2-2---------0h2-2-2-0-2-0-----------------| 
Gb|-------------------------------------------------------------|
Db|-------------------------------------------------------------|
Ab|-------------0---------2-2-0-0-------------------------------|
Eb|-0h2-2-2-0-2-0-0-2-2-2---------0h2-2-2-0-2-0-5-5-5-5-3-3-3-3-| 

Pré-Refrão:
Gb|-----------------------------------------------------------------|
Db|-----------------------------------------------------------------|
Ab|-----------------5-5-5-5-------------------------5-5-5-5---------|
Eb|-5-5-5-5-3-3-3-3---------5-5-5-5-5-5-5-5-3-3-3-3---------5-5-5-5-| 

Gb|-----------------------------------------------------------------|
Db|-----------------------------------------------------------------|
Ab|-----------------5-5-5-5-----------------------------------------|
Eb|-5-5-5-5-3-3-3-3---------5-5-5-5-3-3-3-3-3-3-3-3-3-3-3-3-3-3-3-3-|

Refrão:
Gb|-----------------------------------------------------------------|
Db|-----------------------------------------------------------------|  (2x)
Ab|---------------------------------5-5-5-5-5-5-5-5-----------------|
Eb|-0-0-0-0-0-0-0-0-2-2-2-2-2-2-2-2-----------------5-5-5-5-5-5-5-5-|

Gb|-----------------------------------------------------------------|
Db|-----------------------------------------------------------------|
Ab|-------------------------------------------------5-5-5-5-5-5-5-5-|
Eb|-5-5-5-5-5-5-5-5-0-0-0-0-0-0-0-0-2-2-2-2-2-2-2-2-----------------| 

Gb|---------------------------------|
Db|---------------------------------|
Ab|---------------------------------|
Eb|-5-5-5-5-5-5-5-5-0-0-0-0-0-0-0-0-| 

Ponte 2:
Gb|-----------------------------------------------------------------|
Db|-----------------------------------------------------------------|  (2x)
Ab|---------------------------------5-5-5-5-5-5-5-5-----------------|
Eb|-2-2-2-2-2-2-2-2-0-0-0-0-0-0-0-0-----------------0-0-0-0-0-0-0-0-|

Refrão:
Gb|-----------------------------------------------------------------|
Db|-----------------------------------------------------------------|  (2x)
Ab|---------------------------------5-5-5-5-5-5-5-5-----------------|
Eb|-0-0-0-0-0-0-0-0-2-2-2-2-2-2-2-2-----------------5-5-5-5-5-5-5-5-|

Gb|-----------------------------------------------------------------|
Db|-----------------------------------------------------------------|  (2x)
Ab|-------------------------------------------------5-5-5-5-5-5-5-5-|
Eb|-5-5-5-5-5-5-5-5-0-0-0-0-0-0-0-0-2-2-2-2-2-2-2-2-----------------|

Gb|---------------------------------|
Db|---------------------------------|
Ab|---------------------------------|
Eb|-5-5-5-5-5-5-5-5-0-0-0-0-0-0-0-0-| 

Outro:
Gb|-------------------------------------------------------------|
Db|-------------------------------------------------------------|
Ab|-------------0---------2-2-0-0---------------0-0-0-0-2-2-2-2-|
Eb|-0h2-2-2-0-2---0-2-2-2---------0h2-2-2-0-2-0-----------------| 

Gb|--------------------------------|
Db|--------------------------------|
Ab|-2~~~~~~~~~~~~~~~~~~~~~~~~~~~~~-|
Eb|--------------------------------|

Comentários 0

Composição: André Kostelanetz / Kelly Bowlin / Mark Choiniere
Esse não é o compositor? Avise-nos.
Contribuição: agger
publicidade
fechar