Apache

The Shadows

Sem foto do The Shadows
Tom: C
		

      Am              D
E|--0---------------2-----4/5-3-0-----|
B|--1-----1-3/4/3---3---1-------------|
G|--2---2-----------2--2--------------|   X2
D|------------------------------------|
A|------------------------------------|
E|------------------------------------|



    Am        D         Am      D
E|------------------------------------|
B|------------------------------------|
G|----2---2-------------2---2---------|
D|--2---2---4-2-0-2---2---2---4-2-0-2-|
A|------------------------------------|
E|------------------------------------|



       Dm     G          Am    D
E|------------------------------------|
B|------------------------------------|
G|----7---7-------------2---2---------|
D|--7---7---9-7---7---2---2---4-2-0-2-|
A|--------------10--------------------|
E|------------------------------------|



    F                               Am
E|------------------------------------|
B|------------------------------------|
G|------------------------------------|   X2
D|---3-3-3---3-3-3---3-3-3---3-3-3-2--|
A|-3-------3-------3-------3--------0-|
E|------------------------------------|



   F        G          Am
E|------------------------------------|
B|------1-0--1-3-5-3-1----------------|
G|----2----------------2--------------|
D|--3---------------------------------|
A|------------------------------------|
E|------------------------------------|



     F    G      C                   Am
E|--------------------3-------5-------|
B|-----1-0--1-3?--3/5---5-5/7---7-7/b9|
G|---2----------0---------------------|
D|-3----------------------------------|
A|------------------------------------|
E|------------------------------------|



      F     G     C    Am
E|------------------------------------|
B|------1-0--1-3-5-3-1----------------|
G|----2----------------2--------------|
D|--3---------------------------------|
A|------------------------------------|
E|------------------------------------|



    F                                Am
E|------------------------------------|
B|------------------------------------|
G|------------------------------------|   X2
D|---3-3-3---3-3-3---3-3-3---3-3-3-2--|
A|-3-------3-------3-------3--------0-|
E|------------------------------------|



    Am           D
E|-----------------------------------------------------|
B|-----------------------------------------------------|
G|--2-2-2-2---2-2----------------2---------------------|  X2
D|-2-------2-2---4-4-4-4-2-2-0-0?2---------------------|
A|-----------------------------------------------------|
E|-----------------------------------------------------|



    Dm            G
E|-----------------------------------------------------|
B|-----------------------------------------------------|
G|--7-7-7-7---7-7----------------7---------------------|
D|-7-------7-7---9-9-9-9-7-7-0-0?7---------------------|
A|-----------------------------------------------------|
E|-----------------------------------------------------|



    Am           D
E|-----------------------------------------------------|
B|-----------------------------------------------------|
G|--2-2-2-2---2-2--------------------------------------|
D|-2-------2-2---4-4-4-4-2-2-0-0-2-2-2-2-2-2-2-2-2-2---|
A|-----------------------------------------------------|
E|-----------------------------------------------------|



    F       G         Am
E|------------------------------------|
B|------1-0--1-3-5-3-1----------------|
G|----2----------------2--------------|
D|--3---------------------------------|
A|------------------------------------|
E|------------------------------------|



    F      G           Am     C
E|----------------------------------------|
B|----1-0--1-3-5--------------------------|
G|---2-----------1-1-1-1-1-1-2-1/3-1------|
D|--3-------------------------------------|
A|----------------------------------------|
E|----------------------------------------|



    F      G           Am C
E|------------------------------------|
B|------1-0--1-3-5-3-1----------------|
G|----2----------------2--------------|
D|--3---------------------------------|
A|------------------------------------|
E|------------------------------------|



    F                               Am
E|------------------------------------|
B|------------------------------------|
G|------------------------------------|   X2
D|---3-3-3---3-3-3---3-3-3---3-3-3-2--|
A|-3-------3-------3-------3--------0-|
E|------------------------------------|



    F            G         Am
E|------------------------------------|
B|------------------------------------|
G|------------------------------------|
D|------------------------------------|
A|------------------------------------|
E|-1-1-1-4-4-4-6-6-6-8-8-8-7----------|



      Am              D
E|--0---------------2-----4/5-3-0-----|
B|--1-----1-3/4/3---3---1-------------|
G|--2---2-----------2--2--------------|   X4
D|------------------------------------|
A|------------------------------------|
E|------------------------------------|

Comentários 1

  • rickbond rickbond: Postado em 11/05/2012 19:49

    Amo muito isso

Composição: Kelley Lovelace / Lynn Baird
Esse não é o compositor? Avise-nos.
Contribuição: el matador Correções: Carlos e mais 1 »
Exibir acordes »
publicidade
fechar