Mollys Lips

The Vaselines

 The Vaselines
Tom: C
		
Tuning: Standard (E A D G B e)

Verses


e|-------------------|
B|-------------------|
G|-------------------|
D|--9--9(9)-9--9(9)--|
A|--0--0h7--7--7p0---|
E|-------------------|


Chorus


e|--------------------|
B|--------------------|
G|--------------------|
D|--9-9-7-7-5-5-------|
A|--7-7-5-5-3-3-7777--|
E|--------------5555--|


Bridge


e|-------------------|
B|-------------------|
G|-------------------|
D|--9-9-9-9-9-9-9----|
A|--7-7-7-7-7-7-7-7--|
E|----------------5--|


| /  slide up
| \  slide down
| h  hammer-on
| p  pull-off
| ~  vibrato
| +  harmonic
| x  Mute note
| () Ghost note
===========================================================================

Comentários 0

Composição: Eugene Kelly / Frances McKee / Jake Schulze / Lukasz Gottwald / Steve Torch / Tuca Fernandes
Esse não é o compositor? Avise-nos.
Consegui tocarAinda não conseguiram tocar essa música. Seja o primeiro!
    Não consegui tocar
    Exibir acordes »
    publicidade
    fechar