Deixar Acontecer

The Youths

 The Youths Compositor: Guto Magalhães
Tom: D
		

E|---------------------------------------------------------------------|
B|---------------------------------------------------------------------|
G|7--7--7--7--7--11-11-11-11-11-12--12--12--12--12--14--14--14--14--14-| 4x
D|7--7--7--7--7--11-11-11-11-11-12--12--12--12--12--14--14--14--14--14-|
A|5--5--5--5--5--9--9--9--9--9--10--10--10--10--10--12--12--12--12--12-|
E|---------------------------------------------------------------------|



E|-----------------|
B|-----------------|
G|6--9--7~---------|
D|6--9--7~---------|
A|4--7--5~---------|
E|------------15/0-|


só baixo
 
D         A        G           A
NÃO SEI SE É COM VOCÊ QUE EU QUERO FICAR 
D     A    G        
TALVEZ O TEMPO RESOLVA
D      A   G             A
NÃO SEI SE EU VOU ME APAIXONAR POR VOCÊ
D     A        G 
O MELHOR É DEIXAR ACONTECER

ENTRA TODOS OS INSTRUMENTOS

D    A        G        A
NAQUELA NOITE TE CONHECI 
D     A    G        
MAIS EU NEM PUDE CHEGAR
D      A   G             A
VOCÊ ESTAVA PARADA ALI
D     A        G 
E O SEU PAI VINHA TE BUSCAR


depois entra tudo e fais uma parada em cada acorde
D A G A

REFRÃO
   D            A
UM OUTRO DIA A GENTE SE VÊ       |
   Bm           G                |
NA AREIA DA PRAIA SOH EU E VOCÊ  |
  D         A                    |  2x
E AQUELE BEIJO QUE VOCÊ ME DEU   |

   Bm   G     A                  |
FOI NO ROSTO MAIS VALEU          |


REPETE INTRO


E|---------------------------------------------------------------|
B|---------------------------------------------------------------|
G|---------------------------------------------------------------|
D|---7---7---7---7---7---7---7---7---7---7---7---7---7---7---7---|
A|-5---5---5---5-------------------------------------------------|
E|-----------------5---5---5---5---7---7---7---7---3---3---3---3-|


SUA AMIGA DIZ Q EU NÃO SOU

O CARA QUE VOCÊ SONHOU

OLHE BEM PRA ELA E DIZ

ELE É QUEM ME FAZ FELIZ

D    A        G        A
NAQUELA NOITE TE CONHECI 
D     A    G        
MAIS EU NEM PUDE CHEGAR
D      A   G             A
VOCÊ ESTAVA PARADA ALI
D     A        G 
E O SEU PAI VINHA TE BUSCAR

D A G A


E|---14--12----------------9--7----------------------7--9-------------9--10-|
B|-----------15--14--12~---------10--9--7---5--7--8---------7--9--10--------|
G|--------------------------------------------------------------------------| 2x
D|--------------------------------------------------------------------------|
A|--------------------------------------------------------------------------|
E|--------------------------------------------------------------------------|


REFRÃO
   D            A
UM OUTRO DIA A GENTE SE VÊ       |
   Bm           G                |
NA AREIA DA PRAIA SOH EU E VOCÊ  |
  D         A                    |  2x
E AQUELE BEIJO QUE VOCÊ ME DEU   |

   Bm   G     A                  |
FOI NO ROSTO MAIS VALEU          |
461 exibições

Comentários 0

Composição: Sabe quem é o compositor? Envie pra gente. Contribuição: guto
Consegui tocarAinda não conseguiram tocar essa música. Seja o primeiro!
    Não consegui tocar
    Exibir acordes »
    publicidade
    fechar