Filho de Davi

Tony Allysson

 Tony Allysson
Tom: D
		
      D                         A
Me contaram que o Senhor ia passar
        Em                        A
E que havia uma chance de eu poder enxergar
      D                   A
Me disseram que tinhas poder
     Em                      A
Pra ressuscitar e fazer o paralítico andar

Bm                       F#m     G
  Renasceu dentro de mim  a fé
                       A
Que há muito eu já não tinha
Bm                  F#m     G
  Eu senti meu coração arder
      Em              A
E eu gritei para o Senhor me responder:

D                  A    Bm
  Jesus, filho de Davi, me cura
     G            D
És o Santo de Israel
                     A    Bm
Diante de Ti a tempestade se cala
         A            D
Meu Deus honra a minha fé
D                  A    Bm
  Jesus, filho de Davi, me cura
     G            D
És o Santo de Israel
                     A    Bm
Diante de Ti a tempestade se cala
            A         D
Meu Deus honra a minha fé

Solo:
Base do Solo: Bm  F#m  G  A (2x)


E|-----------------------------10-9-------------------------------------|
B|-10------------------------------12-10--------------------------------|
G|-9b-9b-9~~-7-9/11-11~~~--9h11---------9/7-7~~-----7/6-6---------------|
D|--------------------------------------------------------9-9p7-7~~-----|
A|----------------------------------------------7h9---------------------|
E|----------------------------------------------------------------------|



E|----------------------------------------------------------------------|
B|------------------------------9/10~~-10/12~~-12/14~~-14/15~~----------|
G|-----------------------9b-9-7-----------------------------------------|
D|----7h9p7h9p7h9p7h9p7-------------------------------------------------|
A|-7h9------------------------------------------------------------------|
E|----------------------------------------------------------------------|



E|----------------------------------------10h12b-12-10~~--17b-17b-17~~--|
B|----------------------------------10-12-------------------------------|
G|-------------------------9-11-12--------------------------------------|
D|-----------------9-11-12----------------------------------------------|
A|--------9-10-12-------------------------------------------------------|
E|-9-10-12--------------------------------------------------------------|



E|--------------------|
B|--17b-15-17-15~~----|
G|--------------------|
D|--------------------|
A|--------------------|
E|--------------------|



  G             A
Eu sei o que o Senhor tem pra mim
        G                                A   F#
Tuas promessas não vão deixar de se cumprir
  Bm                   E
Eu sei, Teu Espírito está agindo em mim
  G  A
Jesus

D                  A    Bm
  Jesus, filho de Davi, me cura
     G            D
És o Santo de Israel
                     A    Bm
Diante de Ti a tempestade se cala
         A             D
Meu Deus honra a minha fé (2x)

Final: G A (2x) C D
191.269 exibições

Comentários 1

  • Daniel Daniel: Postado em 29/04/2014 23:56

    Música Linda!

Composição: Tony Allysson
Esse não é o compositor? Avise-nos.
Contribuição: lucasiqueira Correções: julia.coninck.de.oliveira , washynogueira e mais 3 »
Exibir acordes »
publicidade
fechar