Tua Graça Me Basta

Toque No Altar

 Toque No Altar
Tom: E
		
(intro) C#m B A F#m C#m B A B

E                                 A9
   Eu não preciso ser reconhecido por ninguém,
E                                 A9
  A minha glória é fazer com que conheçam a ti,
C#m          B    A               E/G#   F#m          B9
  e que diminua eu pra que tu cresças Senhor, mais e mais
E                                      A9
  E como os serafins que cobrem o rosto ante a Ti
E                                    A9
  escondo o rosto pra que vejam Tua face em mim
C#m        B    A                E/G#  F#m        B9
  e que diminua eu pra que Tu cresças Senhor mais e mais

(refrão)
                 A            E/G#   F#m
  No Santo dos Santos a fumaça me esconde,
                       C#m     B9             A
  Só os teus olhos me veêm, de baixo de tuas asas
       G#m    F#m             C#m
  É o meu abrigo, meu lugar secreto,
          B9      A           B9                E        A
  Só tua graça me basta e tua presença é o meu prazer...

(início)
(refrão 2x)

(solo)
E A E F#m C#m B9 A E F#m


E |----------------------------------------------------------------
B |----------------------------------------------------------------
G |------------------8h9-8-----------------------------------------
D |----------------------9-9-9h11-11-11-9-6-6-6h7-7-6-6/11---------
A |------------------------------------------------------10/11-----
E |----------------------------------------------------------------



E |-------------------------------------------------------------------
B |-------------------17-16-------------16-17-17/21-21-21/22-22-------
G |------------------------16-16-16h18-18-----------------------------



E |-----------------------------------
B |-----------------------------------
G |-----------------------------------
D |-4-6------------4-6-------------4-4
A |-2-4-6-7-2-4----2-4-6-7-2-4-4-4-2-2
E |-----4-5-0-2--------4-5-0-2-2-2----


(refrão)

           C#m          F#m
  Tua presença, tua presença é o meu prazer
          E           B9
  Tua presença, tua presença é o meu prazer senhor

(refrão)

Comentários 3

  • israel.sslopes israel.sslopes: Postado em 20/01/2014 13:42

    cara o coro acho que ta errado tambem


  • Thaian Thaian: Postado em 12/01/2014 19:14

    isso so fica na versão 4

  • Wilmersom Wilmersom: Postado em 08/03/2013 17:59

    Solo errado

Composição: Luiz Arcanjo / Davi Sacer
Esse não é o compositor? Avise-nos.
Contribuição: Chever Correções: kaalll e mais 2 »
Consegui tocarAinda não conseguiram tocar essa música. Seja o primeiro!
    Não consegui tocar
    Exibir acordes »
    publicidade
    fechar