Castigo

Trio Chapahalls

Sem foto do Trio Chapahalls Compositor: Eder, Carlinhos e Leleu.
Tom: C
		
Solo:

E|------------------------------------------------------------0-0-0----------------|
B|---------------------------------------------------------1--------3-3-3--1-1-1---|
G|-------------------------------0--0--2---4---4---2---0---------------------------|
D|--2--0--2--0-----3---2/3--2/3----------------------------------------------------|
A|--3-----------3------------------------------------------------------------------|
E|---------------------------------------------------------------------------------|



E|---------------------------------------------------------------5------3-------1------0|
B|---------------------------------------------------------1--1---- 1-------1------1----|
G|-------------------------------0--0--2---4---4---2---0--------------------------------|
D|--2--0--2--0-----3---2/3--2/3---------------------------------------------------------|
A|--3-----------3-----------------------------------------------------------------------|
E|--------------------------------------------------------------------------------------|


Intro: C  C7  F  G  (2x)
       C  G  F  G  F

 C
Eu não consigo te esquecer
 Am
Meu pensamento só me faz sofrer
 F               Dm
A cada dia chego a delirar
 G
Se for um sonho não me deixe acordar
 C
Parece até ser um castigo
 Am
A solidão quer acabar comigo
 F                       Dm
Não posso mais viver sem essa paixão
 G
Dê outra chance pro meu coração

 C
Aonde estou que eu não perco a cabeça
 Am
Volte pra mim antes que eu enlouqueça
 F                     Dm
Aonde estou que vejo o mundo girar
 G
Será que um dia isso vai se acabar

Intro: C  C7  F  G  (2x)
       C  G  F  G  F
 
 C
Parece até ser um castigo
Am
A solidão quer acabar comigo
 F                       Dm
Não posso mais viver sem essa paixão
 G
Dê outra chance pro meu coração

 C
Aonde estou que eu não perco a cabeça
 Am
Volte pra mim antes que eu enlouqueça
 F                     Dm
Aonde estou que vejo o mundo girar
 G
Será que um dia isso vai se acabar

Intro: C  C7  F  G  (2x)
       C  G  F  G  F
20.709 exibições

Comentários 0

Composição: Leléu
Esse não é o compositor? Avise-nos.
Contribuição: fabriciogt Correções: Kadu e mais 2 »
Consegui tocarAinda não conseguiram tocar essa música. Seja o primeiro!
    Não consegui tocar
    Exibir acordes »
    publicidade
    fechar