Shadowfear

Vader

 Vader
Tom: E
		
Album: Impressions in Blood

Version 1.0 - *

Transcribed By: evilkin
Email:          *

.  - palm mute           /  - slide up to
\  - slide down to       ~  - vibrato
p  - pull off            Suffixes for bend
t  - tap                 f  - full bend    h - half bend
ph - pinched harmonic    q  - quarter bend t - tap bend
*  - see comment         ^  - Hold bend    r release bend
,  - slight palm mute    () - ghost note, sustained note
"  - tremolo note         - Trill

Tuning C# F# B E G# C#

RIFF A

|----------------------------------------------------------------
|----------------------------------------------------------------
|----------------------------------------------------------------
|----------------------------55555555----77777777----------------
|------------22222222----------------5555------------------------
|000000000000--------33333333--------------------3333555533332222



----------------------------------------------------------------|
----------------------------------------------------------------|
----------------------------------------------------------------|
----------------------------55555555----77777777----555544444444|
------------22222222----------------5555--------5555------------|
000000000000--------33333333------------------------------------|


RIFF B

|----------------------------------------------------------------
|----------------------------------------------------------------
|----------------------------------------------------------------
|--------------------------------44444444555555555555777755554444
|----------------5\----------------------------------------------
|00003333222200003\----------------------------------------------


RIFF C

|----------------------------------------------------------------
|----------------------------------------------------------------
|----------------------------------------------------------------
|----------------------------------------------------777788889999
|--------22222222----33333333--------55555555----6666------------
|00000000--------3333--------22222222--------3333----------------


					     --------------------|
					     --------------------|
		ON 4th TIME		     --------------------|
					     44444444666666667777|
					     --------------------|
					     --------------------|

BREAK1

|----------------------------------------------------------------
|----------------------------------------------------------------
|----------------------------------------------------------------
|----------------------------7-------------------------------7---
|----------------------------5-------------------------------5---
|0000000000000000000000006666----0000000000000000000000006666----



----------------------------------------------------------------|
----------------------------------------------------------------|
----------------------------------------------------------------|
----------------------------7-----------------------------------|
----------------------------5-----------------------2222----1111|
0000000000000000000000006666----00000000000000003333----2222----|


RIFF D

|----------------------------------------------------------------
|----------------------------------------------------------------
|----------------------------------------------------------------
|----------------------------7-----------------------------------
|----------------------------5-----------------------2222----1111
|0000000000000000000000006666----00000000000000003333----2222----



----------------------------------------------------------------|
----------------------------------------------------------------|
----------------------------------------------------------------|
----------------------------7-----------------------------------|
----------------------------5-----------------------2222--------|
0000000000000000000000006666----00000000000000003333----22222222|


RIFF D.1		2 times,

|----------------------------------------------------------------
|----------------------------------------------------------------
|----------------------------------------------------------------
|----------------------------7-----------------------------------
|----------------------------5-----------------------2222----1111
|0000000000000000000000006666----00000000000000003333----2222----

		then

|----------------------------------------------------------------
|----------------------------------------------------------------
|----------------------------------------------------------------
|----------------------------7-----------------------------------
|----------------------------5-----------------------2222--------
|0000000000000000000000006666----00000000000000003333----22222222



----------------------------------------------------------------|
----------------------------------------------------------------|
----------------------------------------------------------------|
----------------------------7-----------------------------------|
----------------------------5-----------333322223---------------|
0000000000000000000000006666----00000000--------1---------------|


RIFF E

|----------------------------------------------------------------
|----------------------------------------------------------------
|----------------------------------------------------------------
|------------------------------------------------8888888866665555
|--------------------------------5555555566665555----------------
|33333333444433336666666644443333--------------------------------


RIFF F

|----------------------------------------------------------------
|----------------------------------------------------------------
|----------------------------------------------------------------
|----------------------------------------------------------------
|----------------------------------------------------------------
|2222222222222222333333332222222211111111111111113333333333333333


RIFF G

|----------------------------------------------------------------
|----------------------------------------------------------------
|----------------------------------------------------------------
|------------------------------------------------3333333333333333
|--------------------------------5555555555555555----------------
|22222222222222223333222255552222--------------------------------


RIFF H

|----------------------------------------------------------------
|----------------------------------------------------------------
|----------------------------------------------------------------
|----------------------------------------------------------------
|--------------------------------3333333333333333----------------
|33333333333333334444333366663333----------------5555555555555555


BREAK2

|----------------------------------------------------------------
|----------------------------------------------------------------
|----------------------------------------------------------------
|2-----------------------------------9---9---10--10--8---8---9---
|2---------------------------------------------------------------
|0-----------------------------------7---7---8---8---6---6---7---



----------------------------------------------------------------|
----------------------------------------------------------------|
7-------------------------------9---------------10--------------|
----------------------------------------------------------------|
5-------------------------------7---------------8---------------|
----------------------------------------------------------------|


RIFF I

|----------------------------------------------------------------
|----------------------------------------------------------------
|----------------------------------------------------------------
|----------------------------------------------------------------
|------------------------------------------------5555555555555555
|444444444444444444444444555555553333333333333333----------------


BREAK3

|----------------------------------------------------------------
|----------------------------------------------------------------
|----------------------------------------------------------------
|----3---4---------3---4-------------3---4---------4---5---------
|----1---2-5-4-2---1---2-5-2-3-4-----1---2-5-4-3---2---3-5-2-4-3-
|0-0---0---3-2-0-0---0---3-0-1-2-0-0---0---3-2-1-1---1---3-0-2-1-

 . .   .   . .   .   .   . .     . .   .   . . . .   .   . . 

RIFF J

|----------------------------------------------------------------
|----------------------------------------------------------------
|----------------------------------------------------------------
|----3---4---------4---5-------------3---4---------4---5---------
|----1---2-5-4-3---2---3-5-2-4-5-----1---2-5-4-3---2---3-5-2-4-3-
|0-0---0---3-2-1-1---1---3-0-2-3-0-0---0---3-2-1-1---1---3-0-2-1-

 . .   .   . .   .   .   . .     . .   .   . .   .   .   . . 


--------------------------------------------------------------------------------------|
--------------------------------------------------------------------------------------|
--------------------------------------------------------------------------------------|
----3---4---------4---5-------------3---4---------------------------------------------|
----1---2-5-4-3---2---3-5-2-4-5-----1---2---5-4-3-3---------3-3-----4-5-3-----5-6-5-3-|
0-0---0---3-2-1-1---1---3-0-2-3-0-0---0---0-3-2-1-1---------1-1-----2-3-1-----3-4-3-1-|

. .   .   . .   .   .   . .     . .   .   . . . 

RIFF K

|----------------------------------------------------------------
|----------------------------------------------------------------
|----------------------------------------------------------------
|2-------------------------------2-------------------------------
|2-------------------------------2-------------------------------
|0---------------11111111333344440---------------1111111133334444

                 ................                ................


----------------------------------------------------------------|
----------------------------------------------------------------|
----------------------------------------------------------------|
2---------------------------------------------------------------|
2---------------------------------------------------------------|
0---------------111111113333444411111111333344444444333344441111| 

		................................................ 

RIFF L

|----------------------------------------------------------------
|----------------------------------------------------------------
|----------------------------------------------------------------
|----------------------------------------------------------------
|----------------------------------------------------------------
|2222222222222222333333333333333322222222222233333333333355556666


END

|----------------------------------------------------------------
|----------------------------------------------------------------
|----------------------------------------------------------------
|5-------------------------------2-------------------------------
|3-------------------------------2-------------------------------
|3-------------------------------0-------------------------------


SONG STRUCTURE:
RIFF A 2x
RIFF B 2x
RIFF C 4x
BREAK1
RIFF D 2x
RIFF E
RIFF F 2x
RIFF G 2x
RIFF H 4x
RIFF D 2x
BREAK2
RIFF D 2x (other way around, you'll hear it)
RIFF I 4x
RIFF F 2x
RIFF G 2x
BREAK3
RIFF J
RIFF K 2x
RIFF L 4x
RIFF D.1
RIFF F 2x
RIFF G 2x
END

287 exibições

Comentários 0

Composição: J. Fogerty / Robert Bartlett
Esse não é o compositor? Avise-nos.
Consegui tocarAinda não conseguiram tocar essa música. Seja o primeiro!
    Não consegui tocar
    Exibir acordes »
    publicidade
    fechar