Avohai (Versão 1978)

Zé Ramalho

 Zé Ramalho

Intro:
G|---------|
D|---------|
A|--12/7-7-|
E|---------|

Parte 1:
G|---7-9/11-9-------------------------|----7-7------------7-------------|
D|-9----------12-9-------7------------|-7-------4-5-7---7---7-5-7-------| (2X no início)
A|-----------------10--9---9-10-7/9-5-|---------------5-----------5-6-7-|
E|------------------------------------|---------------------------------|

Parte 1.1:
G|---7-9/11-9-------------------------|----7-7--------------7-7---------|
D|-9----------12-9-------7------------|-7-------4-5-7-----7-----4-5-7---|  
A|-----------------10--9---9-10-7/9-5-|----------------5--------------5-|
E|------------------------------------|---------------------------------|

Parte 2:
G|----7-7-------7-7---------7-7-------7-----------------------7-7-------7-------------|
D|-7------7---7-----5/7---7-----7---7---7-5-7---------------7-----7---7---7-5-7-------|
A|----------5-----------5---------5-----------5-4-2-4-5-4-5---------5-----------5-6-7-|
E|------------------------------------------------------------------------------------|

Parte 3:
G|----7-7---------------7-7-------7-7-------------7-7-------7-------------|
D|-7------7-----------7-----7---7-----7---------7-----7---7---7-5-7-------|
A|-----------------5----------5---------------5---------5-----------5-6-7-|
E|-----------5-2-5----------------------5-2-5-----------------------------|

Parte 4:
G|-----------------------7-6-5--------------------------------------------------------|
D|-5-6-7-7---6-7---7-6-5-------4-5-7-7---6-7-7---6-7-7---6-7---7-6-5-5---4-5-5--------|
A|---------7-----7---------------------7-------7-------7-----7---------5-------5-4-2--|
E|------------------------------------------------------------------------------------|

G|---------------------------------------------------|
D|-----------4-5-7-7---6-7-7---6-7-7---6-7-6-7-7-9---|
A|-2-----2-2---------7-------7-------7-------------7-|
E|---2-3---------------------------------------------|

23.401 exibições

Comentários 0

publicidade
fechar