Me Sinto Só

Zuka

Sem foto do Zuka Compositor: Hugo Zucareli
Tom: A
		
(intro) B  E  B  F#


E |----------9-----------------------9-----9-11-------------9---------------------12-11----|
B |----12------12--------------12------12--------------12-----12-----------12-----------12-|
G |-11----11------11--------11----11----------------11---11-----11------11----12-----------|
D |----------------------------------------------------------------------------------------|
A |----------------------------------------------------------------------------------------|
E |----------------------------------------------------------------------------------------|


B
Me sinto só.
              F#
Não tenho ninguém.

Me sinto só.
            G#m
E você não vem.

Me sinto bem
         E
Estando só.

Me sinto mal.
               B
Na garganta um nó.

Me sinto só.
                 F#
Tem muita gente aqui.

Me sinto só.
               G#m
E ninguém pra mim.

Me sinto bem.
            E
Com você assim.

Me sinto mal.
          B   F# (solo 1 junto com a base)
Isso é o fim.
       G#m     E
Isso é o fim

(solo 1)

E |------------------------------------------------------------------------------------------|
B |------------------------------------------------------------------------------------------|
G |-8-8-8-8-8--6-6-6--9-9-9--8-8-8-8-8--11-11-11-11-11---------------------------------------|
D |------------------------------------------------------------------------------------------|
A |-6-6-6-6-6--4-4-4--7-7-7--6-6-6-6-6--9--9--9--9--9----------------------------------------|
E |------------------------------------------------------------------------------------------|



E |------------------------------------------------------------------------------------------|
B |-------------11-11-11---------------------------------------------------------------------|
G |-8-8-8-8-8-------------11-11-11--13-13-13-13-13--9-9-9-9-9--------------------------------|
D |-------------8--8--8----------------------------------------------------------------------|
A |-6-6-6-6-6-------------9--9--9---11-11-11-11-11--7-7-7-7-7--------------------------------|
E |------------------------------------------------------------------------------------------|


B
Me sinto só.
              F#
Não tenho ninguém.

Me sinto só.
            G#m
E você não vem.

Me sinto bem
         E
Estando só.

Me sinto mal.
               B
Na garganta um nó.

Me sinto só.
                 F#
Tem muita gente aqui.

Me sinto só.
               G#m
E ninguém pra mim.

Me sinto bem.
            E
Com você assim.

Me sinto mal.
          B   F#
Isso é o fim.
       G#m     E
Isso é o fim

B                                  F#
E quando o sol brotar da terra eu vou
G#m                                 G
Pegar minhas coisas e dar o fora daqui.

B                                  F#
E quando o sol brotar da terra eu vou
G#m                                 G
Pegar minhas coisas e dar o fora daqui.

(ponte) G#m E B F#

G#m
Vou pra um lugar
            E
Onde me sinta bem,
             B
Não tenho você e

Não quero ninguém
     F#
Pra me fazer sorrir.

G#m
Vou pra um lugar
            E
Onde me sinta bem,
             B
Não tenho você e

Não quero ninguém
     F#
Pra me fazer sorrir.

    E
Pra me fazer sorrir.
    F#
Pra me fazer sorrir.
    E
Pra me fazer sorrir
    F#
Pra me fazer sorrir

(solo base 2x) B F# G#m E


E |-----------------------------------------------------------------------------------------------|
B |-----------------------------------------------------------------------------------------------|
G |-4/11~----8-8/6-6~----11-11/13-13/8~----8/4~--3-4/11----8-8/6-6----11-11/13-13/8~-----8b9b9b9--|
D |-----------------------------------------------------------------------------------------------|
A |-----------------------------------------------------------------------------------------------|
E |-----------------------------------------------------------------------------------------------|


B                                  F#
E quando o sol brotar da terra eu vou
G#m                                 G
Pegar minhas coisas e dar o fora daqui.
B                                  F#
E quando o sol brotar da terra eu vou
G#m                                 G
Pegar minhas coisas e dar o fora daqui.
B                                  F#
E quando o sol brotar da terra eu vou
G#m                                 G
Pegar minhas coisas e dar o fora daqui.
B                                  F#
E quando o sol brotar da terra eu vou
G#m                                 G
Pegar minhas coisas e dar o fora daqui.


 (final base 2x) B F# G#m E
E |-------7-----------7-----------7-----------7-----------------------|
B |--------7-----------7-----------7-----------7----------------------|
G |-8h9p8---8---8h9p8---8---8h9p8---8---8h9p8---8---------------------|
D |-------------------------------------------------------------------|
A |-------------------------------------------------------------------|
E |-------------------------------------------------------------------|



E |-------7-----------7-----------7-----------7-----12*---------------------------------------|
B |--------7-----------7-----------7-----------7------12*-7*----------------------------------|
G |-8h9p8---8---8h9p8---8---8h9p8---8---8h9p8---8---------------------------------------------|
D |-------------------------------------------------------------------------------------------|
A |-------------------------------------------------------------------------------------------|
E |-------------------------------------------------------------------------------------------|


(notas com * devem ser feito harmônico natural)
1.818 exibições

Comentários 0

Composição: Hugo Zucareli
Esse não é o compositor? Avise-nos.
Contribuição: Thi Correções: Thi »
Consegui tocarAinda não conseguiram tocar essa música. Seja o primeiro!
    Não consegui tocar
    Exibir acordes »
    publicidade
    fechar