Cifra Club

Instrumental II

14 Bis

Cifra: Principal (violão e guitarra)
exibições 261
Tom: G
Intro

E|---------------------------------------------|
B|---------------------------------------------|
G|---------------------------------------------|
D|-------------------------12---------------12-|
A|-----------10--8--10~12-----10--10h12--10----|
E|-10---8--7-----------------------------------|

E|---------------------------------------------|
B|---------------------------------------------|
G|---------------------------------------------|
D|-7h9-----------------------------------------|
A|------8--------8~10--------------------------|
E|---------8--7--------------------------------|
E|---------------------------------------------|
B|---------------------------------------------|
G|---------------------------------------------|
D|------12----12--11----------------------12---|
A|--12-----------------------------10h12-------|
E|--------------------12--10h8--8--------------|

E|---------------------------------------------|
B|---------------------------------------------|
G|---------------------------------------------|
D|-7h9-----------------------------------------|
A|------8--------8~10--------------------------|
E|---------8--7--------------------------------|
Acordes para:

    0 comentários

    mostrar mais comentários

    Conseguiu tocar?

    0 tocaram 0 ainda não

    Grave um vídeo tocando Instrumental II e mande pra gente!

    00:00 / 00:00
    outros vídeos desta música
    repetir qualidade Automático
    Outros vídeos desta música
    00:00 / 00:00
    Automático
    OK