Cifra Club

Nova Manhã

14 Bis

Tab de baixo: Principal
exibições 25
G|---------------------|
D|---------------------|
A|---------------------|
E|-0---2---------------|

G|---------------------------------------------------------------|
D|---------------------------------------------------------5-----|
A|-------------------------3---3-3---3-5---5-5---5-----5-7---7-5-|
E|-3---3-3---0-3---3-3---3-------------------------3-------------|

G|---------------------------------------------------|
D|---------------------------------------------5-----|
A|-------------3---3-3---3-5---5-5---5-----5-7---7-5-|
E|-3---3-3---3-------------------------3-------------|

G|---------------------------------------------|
D|---------------------------------------------|
A|-------------3---3-3---3-5---5-5---5---------|
E|-3---3-3---3-------------------------3---3-3-|

Procurei não pensar	
G|-----------------------------|
D|-------------5-------------5-|
A|---------5-7-----------5-7---| x2
E|-3---5-7-------3-----8-------|

G|-----------------------------------------------------|
D|-------------5-----------------------------------5---|
A|---------5-7---3-----3--5--6--5-----3--5-----5-7---7-|
E|-3---5-7-------------------------6-------------------|

É distante demais
G|-----------------------------|
D|-------------5-------------5-|
A|---------5-7-----------5-7---| x2
E|-3---5-7-------3-----8-------|

G|-----------------------------------------------------------------------|
D|-------------5---------------------------------------------------------|
A|---------5-7---3-----3--5--6--5-----3--5-5-5-5-5-5-5-5-5-5-5-5-5-5-5-5-|
E|-3---5-7-------------------------6-------------------------------------|

Era melhor a gente não conhecer
G|--------------------------------------------------|
D|--------------------------------------------5-----|
A|-------------3---x-3---3-5---5-5--5-----5-7---7-5-|
E|-3---3-3---3------------------------3-------------|

G|---------------------------------------------|
D|---------------------------------------------|
A|-------------3---3-3---3-5---5-5---5---------|
E|-3---3-3---3-------------------------3---3-3-|

Procurei não pensar
G|-----------------------------|
D|-------------5-------------5-|
A|---------5-7-----------5-7---| x2
E|-3---5-7-------3-----8-------|

G|-----------------------------------------------------|
D|-------------5-----------------------------------5---|
A|---------5-7---3-----3--5--6--5-----3--5-----5-7---7-|
E|-3---5-7-------------------------6-------------------|

É distante demais
G|-----------------------------|
D|-------------5-------------5-|
A|---------5-7-----------5-7---| x2
E|-3---5-7-------3-----8-------|

G|-----------------------------------------------------------------------|
D|-------------5---------------------------------------------------------|
A|---------5-7---3-----3--5--6--5-----3--5-5-5-5-5-5-5-5-5-5-5-5-5-5-5-5-|
E|-3---5-7-------------------------6-------------------------------------|

G|-------------------------------------------------------------------------------------------------------|
D|-2---2-------5------5---4----------------------------------------------------------------------2--3--4-|
A|-------3---3---5------------7-5-3-2-0-------5---5-5---5-3---3-3---3-5---5-5---5-0--2--3--4--5----------|
E|-----------------3--------------------3-2-0------------------------------------------------------------|

G|---------------------------------------------------------------------------------------------------|
D|-2---2-------5------5---4------------------------------------------------------------------2--3--4-|
A|-------3---3---5------------7---7-0---0-5---5-5---5-3---3-3---3-5---5-5---5-0--2--3--4--5----------|
E|-----------------3---------------------------------------------------------------------------------|

Era melhor a gente não conhecer
G|---------------------------------------------------|
D|---------------------------------------------5-----|
A|-------------3---3-3---3-5---5-5---5-----5-7---7-5-|
E|-3---3-3---3-------------------------3-------------|

G|---------------------------------------------|
D|---------------------------------------------|
A|-------------3---3-3---3-5---5-5---5---------|
E|-3---3-3---3-------------------------3---3-3-|

Procurei não pensar
G|-----------------------------|
D|-------------5-------------5-|
A|---------5-7-----------5-7---| x2
E|-3---5-7-------3-----8-------|

G|-----------------------------------------------------|
D|-------------5-----------------------------------5---|
A|---------5-7---3-----3--5--6--5-----3--5-----5-7---7-|
E|-3---5-7-------------------------6-------------------|

É distante demais
G|-----------------------------|
D|-------------5-------------5-|
A|---------5-7-----------5-7---| x2
E|-3---5-7-------3-----8-------|

G|-----------------------------------------------------------------------|
D|-------------5---------------------------------------------------------|
A|---------5-7---3-----3--5--6--5-----3--5-5-5-5-5-5-5-5-5-5-5-5-5-5-5-5-|
E|-3---5-7-------------------------6-------------------------------------|

Já não tem mais jeito
G|---------------------------------------------------------------------------------------------------|
D|-2---2-------5------5---4------------------------------------------------------------------2--3--4-|
A|-------3---3---5------------7---7-0---0-5---5-5---5-3---3-3---3-5---5-5---5-0--2--3--4--5----------| x3
E|-----------------3---------------------------------------------------------------------------------|

G|-------------------------------------------------------------------------------------------------------|
D|-2---2-------5------5---4----------------------------------------------------------------------2--3--4-|
A|-------3---3---5------------7-5-3-2-0-------5---5-5---5-3---3-3---3-5---5-5---5-0--2--3--4--5----------|
E|-----------------3--------------------3-2-0------------------------------------------------------------|

G|---------------------------------------------------------------------------------------------------|
D|-2---2-------5------5---4------------------------------------------------------------------2--3--4-|
A|-------3---3---5------------7---7-0---0-5---5-5---5-3---3-3---3-5---5-5---5-0--2--3--4--5----------| x2
E|-----------------3---------------------------------------------------------------------------------|
Colaboração e revisão:
  • Gustavo Weffort

0 comentários

    mostrar mais comentários

    Conseguiu tocar?

    0tocaram0ainda não

    Grave um vídeo tocando Nova Manhã e mande pra gente!

    00:00 / 00:00
    outros vídeos desta música
    repetirqualidadeautomática
    Outro vídeos desta música
      00:00 / 00:00
      automática
      OK