Cifra Club

Planeta Sonho

14 Bis

Cifra: Principal
exibições 943.936
Tom: D
(intro) Bm  F#m  G  A  D   Bm  F#m  G  A7

E|--------- 5---------------5---|-10-9--7--5----5--------------|
B|0--7-5-7---7--5---5- 7-----7 |-------------7---7--5----5----|
G|---------------7----  7---  |-----------------------7---7--6|  
D|------------------- 7-------- |-----------------------------|
A|----------------------------  |-----------------------------|
E|----------------------------  |-----------------------------|

E|--------5------------|---7-9-10-7------------|---7-9-10-9-7-|
B|--7-5-7---7-5---5----|-----------10-7b10b7---|------------10|
G|-4------------7------|--------------------7--|--------------|
D|-------------------7--|-----------------------|-------------|
A|----------------------|-----------------------|-------------|
E|----------------------|-----------------------|-------------|

 Bm         F#m           G     A7      Bm
 Aqui ning uém mais ficar á dep ois do  sol
 G           D            Bm         F#
 No final ser á o que não  sei mas será
 G      D            G         D      Bm          A7            D   G
 Tudo demai s, nem o be m, nem o mal , s ó o brilho calmo dessa luz

            F#          Bm  A  D            F#          Bm  A  D
O planeta  calma será Terra,  o planeta sonho será  Terra
         Em           F#m             Bm              Em
E lá no fim daquele mar a minha estrela vai se a pagar
          A7   Em             A7   Bm
Como brilhou , fogo solto no  caos

           F#m          G     A7    Bm
 Aqui também é bom lugar de se viver
 G           D            Bm          F#
 Bom lugar será o que não sei mas será
 G         D           G             D   Bm           A7               D       G
 Algo a fazer, bem mel hor que a canção mais bonita que alguém lembrar

         F#          Bm  A  D       F#           Bm  A  D
 A harmonia  será  Terra, a dissonância será bela
        Em            F#m            Bm  Em
E lá no fim daquele azul os meus acordes vão terminar
        A7  Em              A7  Bm
Não haverá  outro som pelo ar

            F#          Bm  A  D            F#          Bm  A  D
 O planeta sonho  será Terra, a dissonância será bela
         Em           F#m             Bm              Em
E lá no fim daquele mar a minha estrela vai se apagar
           A7   Em             A7   Bm
Como brilhou , fogo solto no  caos

( F#  E/F# )
Acordes para:
    Colaboração e revisão:

    0 comentários

      mostrar mais comentários

      Conseguiu tocar?

      11tocaram1ainda não

      Grave um vídeo tocando Planeta Sonho e mande pra gente!

      00:00 / 00:00
      outros vídeos desta música
      repetirqualidadeautomática
      Outro vídeos desta música
        00:00 / 00:00
        automática
        Capítulos
        • Tocando a música
        • Dicas Iniciais / Equipamentos
        • Acordes da música
        • Tocando Introdução e Primeira Parte
        • Ritmo da Introdução e Primeira Parte
        • Tocando Segunda Parte e Refrão
        • Ritmo Segunda Parte e Refrão
        • Encerramento
        • Ficha Técnica
        OK