Cifra Club

Aprenda

Planeta Sonho

14 Bis

Cifra: Principal (violão e guitarra)
Já pensou em usar uma coleção de roupas do Cifra Club? Responda as perguntas abaixo e nos ajude nessa missão! →
tom: D
[Intro] Dm  Am  Bb  C  F  Dm  Am  Bb  C7

E|-------------8----------------------8----13-12-10-8-|
B|----10-8-10----10-8----8----10--------10------------|
G|-7------------------10---7-------10-----------------|
D|----------------------------------------------------|
A|----------------------------------------------------|
E|----------------------------------------------------|

E|----------------------------------------------------|
B|-10-8-----8-----------------------------------------|
G|------10----10-9------------------------------------|
D|----------------------------------------------------|
A|----------------------------------------------------|
E|----------------------------------------------------|

E|-------------8------------------10-12-13--12-10-8---|
B|----10-8-10----10-8----8----10----------------------|
G|-7------------------10---7--------------------------|
D|----------------------------------------------------|
A|----------------------------------------------------|
E|----------------------------------------------------|

E|-8-------------10-12-----13-12-10-8-----------------|
B|---10-8-10-----------13-------------10-8------------|
G|-----------10----------------------------10---------|
D|----------------------------------------------------|
A|----------------------------------------------------|
E|----------------------------------------------------|

[Primeira Parte]

Dm         Am           Bb   C7      Dm
 Aqui ninguém mais ficará depois do sol
 Bb         F            Dm        A
No final será o que não sei mas será
 Bb      F          Bb         F     
Tudo demais, nem o bem, nem o mal
 Bb          C7          F  
Só o brilho calmo dessa luz

[Refrão]

Bb           A          Dm C  
 O planeta  calma será Terra
F          A           Dm C  
O planeta sonho será  Terra
   F     Gm          Am             Dm           Gm
E lá no fim daquele mar a minha estrela vai se apagar
          C7 
Como brilhou 
 Gm            C7   
Fogo solto no caos

[Segunda Parte]

Dm        Am          Bb     C7   Dm
 Aqui também é bom lugar de se viver
 Bb          F            Dm        A
Bom lugar será o que não sei mas será
Bb        F           Bb           F 
Algo a fazer, bem melhor que a canção 
 Bb           C7            F  Bb
Mais bonita que alguém lembrar

        A        Dm C  
A harmonia será Terra
F       A           Dm  C 
A dissonância será be__la
F        Gm           Am           Dm     Gm
E lá no fim daquele azul os meus acordes vão terminar
         C7 Gm             C7  
Não haverá  outro som pelo ar

[Refrão]

Dm         A          Dm C  
O planeta sonho será Terra
F       A           Dm  C  F
A dissonância será be__la
         Gm          Am             Dm             Gm
E lá no fim daquele mar a minha estrela vai se apagar
          C7   Gm            C7   Dm
Como brilhou, fogo solto no caos

( A  G/A )
( A  G/A )
( Dm  Am  Bb  C  F  Dm  Am  Bb  C7 )

E|-------------8----------------------8----13-12-10-8-|
B|----10-8-10----10-8----8----10--------10------------|
G|-7------------------10---7-------10-----------------|
D|----------------------------------------------------|
A|----------------------------------------------------|
E|----------------------------------------------------|

E|----------------------------------------------------|
B|-10-8-----8-----------------------------------------|
G|------10----10-9------------------------------------|
D|----------------------------------------------------|
A|----------------------------------------------------|
E|----------------------------------------------------|

E|-------------8------------------10-12-13--12-10-8---|
B|----10-8-10----10-8----8----10----------------------|
G|-7------------------10---7--------------------------|
D|----------------------------------------------------|
A|----------------------------------------------------|
E|----------------------------------------------------|

E|-8-------------10-12-----13-12-10-8-----------------|
B|---10-8-10-----------13-------------10-8------------|
G|-----------10----------------------------10---------|
D|----------------------------------------------------|
A|----------------------------------------------------|

[Refrão]

Dm         A          Dm C  
O planeta sonho será Terra
F       A           Dm  C  F
A dissonância será be__la
         Gm          Am             Dm             Gm
E lá no fim daquele mar a minha estrela vai se apagar
          C7   Gm            C7   Dm
Como brilhou, fogo solto no caos

[Final] Dm  Am  Bb  C  F  Dm  Am  Bb  C7 

E|-------------8----------------------8----13-12-10-8-|
B|----10-8-10----10-8----8----10--------10------------|
G|-7------------------10---7-------10-----------------|
D|----------------------------------------------------|
A|----------------------------------------------------|
E|----------------------------------------------------|

E|----------------------------------------------------|
B|-10-8-----8-----------------------------------------|
G|------10----10-9------------------------------------|
D|----------------------------------------------------|
A|----------------------------------------------------|
E|----------------------------------------------------|
Composição de Flávio Venturini / Márcio Borges / Vermelho
966.586 exibições
    • ½ Tom
    • A
    • Bb
    • B
    • C
    • Db
    • D
    • Eb
    • E
    • F
    • F#
    • G
    • Ab
  • Adicionar à lista

    0 comentários

    Ver todos os comentários

    Conseguiu tocar?

    20 Tocaram 3 Ainda não

    Grave um vídeo tocando Planeta Sonho e nos envie!

    00:00 / 00:00
    Outros vídeos desta música
    Repetir Qualidade Automático
    Outros vídeos desta música
    00:00 / 00:00
    Automático
    Capítulos
    • Tocando a Música
    • Apresentação / Equipamentos
    • Acordes
    • Tocando Introdução / Primeira Parte
    • Ensinando Ritmo
    • Tocando Solo
    • Ensinando Solo
    • Ensinando Solo - Parte 1
    • Ensinando Solo - Parte 2
    • Ensinando Solo - Parte 3 e 4
    • Ensinando Solo - Parte 5 e 6
    • Encerramento

    Cifra Club Pro

    Aproveite o Cifra Club com benefícios exclusivos e sem anúncios
    Cifra Club Pro
    Aproveite o Cifra Club com benefícios exclusivos e sem anúncios
    OK