Cifra Club

Aprenda

My World

3 Doors Down

Cifra: Principal (violão e guitarra)
tom: G
Intro:
E|-------------------------------------------------------------------------|
B|--------------------------*12---------------------------4----4h5---------|
G|--------------------------*12------------------------------5-----5-------|
D|-------5--4--------5--5--------------5--4--------5--5--------------3-----|
A|--5/7-----5---5/7-----3---------5/7-----5---5/7-----3--------------------|
E|-------------------------------------------------------------------------|

E|-------------------------------------------------------------------------|
B|-------------------------------------------------------4----4h5----------|
G|----------------------------------------------------------5-----5--------|
D|-------5--4--------5--5--------------5--4--------5--5-------------3------|
A|--5/7-----5---5/7-----3---------5/7-----5---5/7-----3--------------------|
E|-------------------------------------------------------------------------|

E|-------------------------------------------------------------------------|
B|-------------------------------------------------------------------------|
G|-------------------------------------------------------------------------|
D|-------5--4--------5--5--------------5--4--------5--5--------------------|
A|--5/7-----5---5/7-----3---------5/7-----5---5/7-----3--------------------|
E|-------------------------------------------------------------------------|


(mantém esse solo na primeira parte)
You´re stuck on a chain
You´re toeing a lie
Seems like every time that you catch up
You only fall behind


refrão:
A9                                        G      B
And your trapped inside this world you made yourself
Em
that's not the world I live in
         D               Em
this is not the life for me
                   C
cause my world is bigger than your problems
          D
and it's bigger than me
 Em
it's not the world I live in
         D               Em
this is not the life for me
                    C                    A9       B
cause my world is bigger than your problems
and it's bigger than me


There is always someone to blame
for the things you do yourself
you think that everything that's going wrong
is because of someone else


(Refrão)


Ponte:
       Em       F#m           G          B
cause I'm lonely outside and I'll look on in


Em
that's not the world I live in
         D               Em
this is not the life for me
                   C
cause my world is bigger than your problems
          D
and it's bigger than me
 Em
it's not the world I live in
         D               Em
this is not the life for me
                    C                    A9       B
cause my world is bigger than your problems
and it's bigger than me
Composição de Brad Arnold / Chris Henderson / Matt Roberts / Víctor M. Ruíz
Colaboração e revisão:
  • Laygo Ferreira
1.262 exibições
    • ½ Tom
    • A
    • Bb
    • B
    • C
    • Db
    • D
    • Eb
    • E
    • F
    • F#
    • G
    • Ab
  • Adicionar à lista

    0 comentários

    Ver todos os comentários

    Conseguiu tocar?

    1 Tocaram 0 Ainda não

    Grave um vídeo tocando My World e nos envie!

    00:00 / 00:00
    Outros vídeos desta música
    Repetir Qualidade Automático
    Outros vídeos desta música
    00:00 / 00:00
    Automático

    Cifra Club Pro

    Aproveite o Cifra Club com benefícios exclusivos e sem anúncios
    Cifra Club Pro
    Aproveite o Cifra Club com benefícios exclusivos e sem anúncios
    OK