Cifra Club

Aprenda

When I'm Gone

3 Doors Down

Cifra: Principal (violão e guitarra)
Quer fazer aulas de música com a gente? Responda essas perguntas
e nos ajude nesse projeto! →
tom: C

Introdução:
    Am                            C         G
e|------------------------------------------3---|
B|--------0h1-----1p0---0h1-----------0h1---3---|
G|------2-----2-------2-----2-------------0-0---|
D|----2---------2-------------------2-------0---|
A|--0-------------------------0-2-3---------2---|
E|------------------------------------------3---|
Intro Pt. 1

    Am                         C       G
e|-------------------------------------3---|
B|--------0h1------3--1--0-----0h1-----0---|
G|------2-----2-------------2-------1--0---|
D|----2---------2----------------------0---|
A|--0----------------------------------2---|
E|-------------------------------------3---|
Intro Pt. 2

    Am    ----------            C      G
e|--0----------------------------------3--|
B|--1--1-----1---1-----1--------0h1----3--|
G|--2----2-----2---2----------------0--0--|
D|--2------2---------2-----------------0--|
A|--0--------------------0-2-3---------2--|
E|-------------------------------------3--|
There's a... may never see... (Verso)

    Am              Am
e|----------------------------------|
B|--------0h1---3---------0h1---0---|
G|------2---------------2-----------|
D|----2---------------2-------------|
A|--0---------0-----0---------0-----|
E|----------------------------------|
Maybe I'm just blind...

e|----------------------------------|
B|--------0h1---3---------0h1---0---|
G|------2---------------2-----------|
D|----2---------------2-------------|
A|--0---------0-----0---------0-----|
E|----------------------------------|
Maybe I'm just blind...
              v ^    v ^
e|---------------------------------------------------------|
B|---------------------------------------------------------|
G|------------2-2-xx-2-2-xx----------5-5-xx----------------|
D|------------2-2-xx-2-2-xx----------5-5-xx-5-5-xx---------|
A|---2h3p2p0--0-0-xx-0-0-xx-2h3p2p0--7-7-xx-5-5-xx-2h3p2p0-|
E|------------------------------------------3-3-xx---------|
So hold me when I'm here... (Chorus)

Guitar 1                   Guitar 2                   Guitar 3
e|-----------------------| e|-----------------------| e|------------------------|
B|-----------------------| B|-----------------------| B|------------------------|
G|-----------------------| G|-----------------------| G|------------------------|
D|----7----7/9/10-xx-5---| D|----7----7/9/10-xx-5---| D|--------------10--------|
A|----------------xx-----| A|----7----7/9/10-xx-3---| A|--12-10h12---------10---|
E|----5----5/7/8--xx-3---| E|----5----5/7/8--xx-3---| E|------------------------|

Guitar 1                   Guitar 2                   Guitar 3
e|-----------------------| e|-----------------------| e|--------------------------|
B|-----------------------| B|-----------------------| B|--------------------------|
G|-----------------------| G|-----------------------| G|--------------------------|
D|----7----7/9/10-xx-5---| D|----7----7/9/10-xx-5---| D|------------10--9h10------|
A|----------------xx-----| A|----7----7/9/10-xx-3---| A|--12--10h12----------10h12|
E|----5----5/7/8--xx-3---| E|----5----5/7/8--xx-3---| E|--------------------------|
After 1st Chorus                                                          pm

e|-----------------------------------|
B|-----------------------------------|
G|-----------------------------------|
D|--7-xx-9/10-xx-10/12-xx-12/14/12---|
A|--7-xx-9/10-xx-10/12-xx-12/14/12---|
E|--5-xx-7/8--xx--8/10-xx-10/12/10---|
Breakdown Pt. 1

e|-------------------------------------|
B|-------------------------------------|
G|-------------------------------------|
D|--7-xx-9/10-xx-10/12-xx-5-4-5--7*----|
A|--7-xx-9/10-xx-10/12-xx-5-4-5--7*----|
E|--5-xx-7/8--xx--8/10-xx-3-2-3--5*----|
Breakdown Pt. 2           pm...

START OF SOLO........
e|---------------------------------------------|
B|---------------------------------------------|
G|---------------------------------------------|
D|---------------------------------------------|
A|--/12-12-12p10-10h12--12p10----10------------|
E|----------------------------12----12-11-10---|

e|-------------------------------------------------|
B|-------------------------------------------------|
G|-------------------------------------------------|
D|--------------------------------------10---------|
A|--15-15--0--0-3-0-0---0---0-/12-12-12----12-12---|
E|--------------------3---3------------------------|

e|----------------------------------------------|
B|----------------------------------------------|
G|----------------------------------------------|
D|-----------9h10p9----9-----9h10h9----12-------|
A|--12-12-12--------12---12~--------12----10~---|
E|----------------------------------------------|

e|----------------------------------------|
B|----------------------------------------|
G|-----------12-12------------------------|
D|--12h14-14-------14-14-14-14-14-14-14---|
A|----------------------------------------|
E|----------------------------------------|

e|----------------------------------------------------|
B|----------------------------------------------------|
G|--12-12-12-12-12-12-12-12-16-16-16-16-16-16-16-16---|
D|----------------------------------------------------|
A|----------------------------------------------------|
E|----------------------------------------------------|

e|------------15h17-17*---|
B|---17-17-17-------------|
G|------------------------|
D|------------------------|
A|------------------------|
E|------------------------|
...........END OF SOLO
**GUITAR 2 PLAYS CHORUS AS BACKUP**

Right after the last chorus...
Guitar 1                   Guitar 2                  
e|-----------------------| e|-----------------------|
B|-----------------------| B|-----------------------|
G|-----------------------| G|-----------------------|
D|----7----7/9/10-xx-5---| D|----7----7/9/10-xx-5---|
A|----------------xx-----| A|----7----7/9/10-xx-3---|
E|----5----5/7/8--xx-3---| E|----5----5/7/8--xx-3---|

Guitar 2 (Guitar 1 plays the same as above)
e|----------------------------|
B|----------------------------|
G|----------------------------|
D|----7----7/9/10-xx-5---7*---|
A|----7----7/9/10-xx-3---7*---|
E|----5----5/7/8--xx-3---5*---|
End of song.

* = Let ring
v = Downstroke
^ = Upstroke

There's a mellow world inside of me
That you may never see
There's secrets in this life that I can't hide
Somewhere in this darkness 
There's a light that I can't find
Maybe it's too far away
Or maybe I'm just blind

  Hold me when I'm here
  Love me when I'm wrong
  Hold me when I'm scared
  And love me when I'm gone

  Everything I am
  Is everything you need
  I'm possibly the one you wanted me to be

  I'll never let you down
  Even if I could
  I'd give up everything
  If only for your good

  So hold me when I'm here
  Love me when I'm wrong
  Hold me when I'm scared
  I won't always be there
  So love me when I'm gone

When your education X-ray
Can not see under my skin
I won't tell you a damn thing
That I could not tell my friends
I'm roaming in this darkness
I'm alive but I'm alone
Part of me is fighting this
But part of me is gone
----------------------------------------------
i Dilani... i gsoip fsaold.
Composição de Brad Arnold / C. DJ Smooth Henderson / Matt Roberts / Víctor M. Ruíz
Colaboração e revisão:
  • Fabiana Rossi
94.696 exibições
    • ½ Tom
    • A
    • Bb
    • B
    • C
    • Db
    • D
    • Eb
    • E
    • F
    • F#
    • G
    • Ab
  • Adicionar à lista

    0 comentários

    Ver todos os comentários

    Conseguiu tocar?

    3 Tocaram 1 Ainda não

    Grave um vídeo tocando When I'm Gone e nos envie!

    00:00 / 00:00
    Outros vídeos desta música
    Repetir Qualidade Automático
    Outros vídeos desta música
    00:00 / 00:00
    Automático

    Cifra Club Pro

    Aproveite o Cifra Club com benefícios exclusivos e sem anúncios
    Cifra Club Pro
    Aproveite o Cifra Club com benefícios exclusivos e sem anúncios
    OK