Cifra Club

Aprenda

Grifter

311

Tab de baixo: Principal
Album: Transistor B-Side (1997)
Bassist: P-Nut
Tuning: B-E-A-D-G


Verse 1:
G|--------------------------------------------------|
D|--------------------------------------------------|
A|--------------------------------------------------|
E|--1-1-1--1-1-------------3-3-3--3-3--5--5-5-3--3--|
B|-------------3--3--3-3-3--------------------------| (x4)


Chorus:
G|--------------------------------------------------------------|
D|--------------------------------------------------------------|
A|--------------------------------------------------------------|
E|--5-5-5--5-5--5-5--5-5--5----5--3-3-3--3-3--3-3--3-3--3----3--|
B|--------------------------5-----------------------------3-----|

G|--------------------------------------------------------------|
D|--------------------------------------------------------------|
A|--------------------------------------------------------------|
E|--5-5-5--5-5--5-5--5-5--5----5--3-3-3--3-3--3----3-3--3----3--|
B|--------------------------5-------------------3---------3-----|


Verse 2:
G|--------------------------------------------------|
D|--------------------------------------------------|
A|-------------5--5--5-5-5--------------------------|
E|--1-1-1--1-1-------------3-3-3--3-3--5--5-5-3--3--|
B|--------------------------------------------------| (x4)


Chorus:
G|--------------------------------------------------------------|
D|--------------------------------------------------------------|
A|--------------------------------------------------------------|
E|--5-5-5--5-5--5-5--5-5--5----5--3-3-3--3-3--3----3-3--3----3--|
B|--------------------------5-------------------3---------3-----| (x2)


Verse 3:
G|--------------------------------------------------|
D|--------------------------------------------------|
A|-------------5--5--5-5-5--------------------------|
E|--1-1-1--1-1-------------3-3-3--3-3--5--5-5-3--3--|
B|--------------------------------------------------| (x4)


Bridge:
G|-----------------------------------------------------------------|
D|-----------------------------------------------------------------|
A|-----------------------------------------------------------------|
E|--6-6-6--6-6--6-6--6-6--6-6--6--5-5-5--5-5--5-5--5-5--5-0-5-0-5--|
B|-----------------------------------------------------------------|

G|-----------------------------------------------|
D|-----------------------------------------------|
A|-----------------------------------------------|
E|--6-6-6--6-6--6-6--6-6--6-6--6--5--4--3--2--1--|
B|-----------------------------------------------|

G|--------------------------------------------------|
D|--------------------------------------------------|
A|-------------5--5--5-5-5--------------------------|
E|--1-1-1--1-1-------------3-3-3--3-3--5--5-5-3--3--|
B|--------------------------------------------------|

G|--------------------------------------------------|
D|--------------------------------------------------|
A|--------------------------------------------------|
E|--1-1-1--1-1-------------3-3-3--3-3--5--5-5-3--3--|
B|-------------3--3--3-3-3--------------------------|


Outro:
G|--------------------------------------------------|
D|--------------------------------------------------|
A|--------------------------------------------------|
E|--1-1-1--1-1-------------3-3-3--3-3--5--5-5-3--3--|
B|-------------3--3--3-3-3--------------------------| (x2)

G|--------------------------------------------------|
D|--------------------------------------------------|
A|-------------5--5--5-5-5--------------------------|
E|--1-1-1--1-1-------------3-3-3--3-3--5--5-5-3--3--|
B|--------------------------------------------------| (x2)

G|-----------------------------------------------------------------|
D|-----------------------------------------------------------------|
A|-----------------------------------------------------------------|
E|--6-6-6--6-6--6-6--6-6--6-6--6--5-5-5--5-5--5-5--5-5--5-0-5-0-5--|
B|-----------------------------------------------------------------|

G|------------------------------------------------|
D|------------------------------------------------|
A|------------------------------------------------|
E|--6-6-6--6-6--6-6--6-6--6-6--6--5--4--3--2--1~--|
B|------------------------------------------------|
227 exibições

0 comentários

Ver todos os comentários

Conseguiu tocar?

0 Tocaram 0 Ainda não

Grave um vídeo tocando Grifter e nos envie!

00:00 / 00:00
outros vídeos desta música
repetir qualidade Automático
Outros vídeos desta música
00:00 / 00:00
Automático

Cifra Club Pro

Aproveite o Cifra Club com benefícios exclusivos e sem anúncios
Cifra Club Pro
Aproveite o Cifra Club com benefícios exclusivos e sem anúncios
OK