Cifra Club

Aprenda

Felt Through A Phone Line

36 Crazyfists

Cifra: Principal (violão e guitarra)
tom: C
Drop C Tuning- CGCFAD

Intro- clean
D||---------------------------------------------------||
A||o---10--10--10--10--8---8--8--8--6--6--6--6--6--6-o||
F||--9---9---9---9---9---9--9--9--9--9--9--9--9--9----||
C||---------------------------------------------------||
G||o-------------------------------------------------o||
C||---------------------------------------------------||

*Alternate Live Intro- distortion
D||---------------------------------------------------||
A||o-10-10-10-10-10-10--8-8-8-8-8-8--6-6-6-6-6-6-6-6-o||
F||--9--9--9--9--9--9---9-9-9-9-9-9--9-9-9-9-9-9-9-9--||
C||---------------------------------------------------||
G||o-------------------------------------------------o||
C||---------------------------------------------------||

Distortion
D|-----------------------------------------------------|
A|-----------------------------------------------------|
F|--5-5-5-5-5-5-5-5-5/6-6-6/7-7-7/4-4-4-4-4-4-4-4-5-5--|
C|--3-3-3-3-3-3-3-3-3/4-4-4/5-5-5/2-2-2-2-2-2-2-2-3-3--|
G|--3-3-3-3-3-3-3-3-3/4-4-4/5-5-5/2-2-2-2-2-2-2-2-3-3--|
C|--3-3-3-3-3-3-3-3-3/4-4-4/5-5-5/2-2-2-2-2-2-2-2-3-3--|
“so we went.. After the crash..    we step out alone

D|-------------------------------------------------|
A|-------------------------------------------------|
F|--5-5-5-5-5-5-5-5-5-9-9-9-9-9-9-111111111111-12--|
C|--3-3-3-3-3-3-3-3-3-7-7-7-7-7-7-9-9-9-9-9-9--10--|
G|--3-3-3-3-3-3-3-3-3-7-7-7-7-7-7-9-9-9-9-9-9--10--|
C|--3-3-3-3-3-3-3-3-3-7-7-7-7-7-7-9-9-9-9-9-9--10--|
“an undivided healing..   that swallows us"

D|--------------------------|
A|-----------5~~-------3~~--|
F|--5~~------4~--------2~---|
C|--3~-------2~--------0----|
G|--3~-------2~--------0----|
C|--3~--3-3--2~--------0----|
“whole.. ohh.. oh"

Clean                     x2    
D||-----------------------||
A||o---------------------o||
F||-------9-----9-----9---||
C||-----7-----7-----7-----||
G||o--7-----7-----7------o||
C||-----------------------||
“the air cuts like glass.."
“you taste like winter.."
“and how long will you last? Forever?"

Distortion                                 x4
D||----------------------------------------||
A||o--------------------------------------o||
F||------9------9--9-9------9------9--9-9--||
C||--7-7-7--7-7-7--7-7--5-5-5--5-5-5--5-7--||
G||o-7-7-7--7-7-7--7-7--5-5-5--5-5-5--5-7-o||
C||----------------------------------------||
“And congratulations.."

D|---------------------------------|
A|---------------------------------|
F|--9~~----7~----5~----5--4---5~~--|
C|--7~~----5~----3~----3--2---3~~--|
G|--7~~----5~----3~----3--2---3~~--|
C|---------------------3--2---3~~--|
“You never looked so beautiful.."

D||----------------------------------------||
A||o----------------------------------5~--o||
F||-------9~-----------------9~---------6--||
C||----------------------------------------||
G||o-000--7~--0--000----000--7~---0-0-----o||
C||--000------0--000----000-------0-0------||
“Telephone.. lines away!.."

D|-----------------------------------------------------|
A|-----------------------------------------------------|
F|--5-5-5-5-5-5-5-5-5/6-6-6/7-7-7/4-4-4-4-4-4-4-4-5-5--|
C|--3-3-3-3-3-3-3-3-3/4-4-4/5-5-5/2-2-2-2-2-2-2-2-3-3--|
G|--3-3-3-3-3-3-3-3-3/4-4-4/5-5-5/2-2-2-2-2-2-2-2-3-3--|
C|--3-3-3-3-3-3-3-3-3/4-4-4/5-5-5/2-2-2-2-2-2-2-2-3-3--|
“so we went.. After the crash..    we step out alone

D|-------------------------------------------------|
A|-------------------------------------------------|
F|--5-5-5-5-5-5-5-5-5-9-9-9-9-9-9-111111111111-12--|
C|--3-3-3-3-3-3-3-3-3-7-7-7-7-7-7-9-9-9-9-9-9--10--|
G|--3-3-3-3-3-3-3-3-3-7-7-7-7-7-7-9-9-9-9-9-9--10--|
C|--3-3-3-3-3-3-3-3-3-7-7-7-7-7-7-9-9-9-9-9-9--10--|
“an undivided healing..   that swallows us"

D|-------------------------------------------------------------------|
A|-5---5---5---5---3---3---3---3---5---5---5---5--10---10---12---13--|
F|---4---4---4---4---2---2---2---2---4---4---4--4----9----9----9-----|
C|-------------------------------------------------------------------|
G|-------------------------------------------------------------------|
C|-------------------------------------------------------------------|
“Nothing’s like this exit! Pale white skin on memory!"

Lyrics-
So we went after the crash,
We step out alone.
An undivided healing                            
That swallows us whole.
                                                
-Verse 1-                                        
The air cuts like glass         
And how long will you last, forever                             
And congratulations                                             
You've become what you wanted.                          
Stepping out of this car with that look in your eye
And knowing that you've never looked so beautiful.
                                                                
-Chorus-                                                         
Telephone lines away,                                           
Death on the end and I’m screaming.                     
226 on the door,                                                
Asking to make out while watching the war.
                                                                
So we went after the crash,                                     
We step out alone.                                              
An undivided healing                                    
That swallows us whole

Nothing’s like this exit,
Pale white skin on memory
Nothing’s like this exit,
Pale white skin on memory

-Verse 2-
And I’ve got the proof to frame the way.
As we danced, we bled across the floor.
And that never-ending supply what we wished for.
It took me 14 hours to get this sore
And knowing that you’ve never looked so beautiful

-Chorus-

-Interlude-
25 days and I still can’t get this right
25 days and I still can’t get this right
Composição de Brock Lindow / Steve Holt / Thomas Noonan
616 exibições
    • ½ Tom
    • A
    • Bb
    • B
    • C
    • Db
    • D
    • Eb
    • E
    • F
    • F#
    • G
    • Ab
  • Adicionar à lista

    0 comentários

    Ver todos os comentários

    Conseguiu tocar?

    0 Tocaram 0 Ainda não

    Grave um vídeo tocando Felt Through A Phone Line e nos envie!

    00:00 / 00:00
    Outros vídeos desta música
    Repetir Qualidade Automático
    Outros vídeos desta música
    00:00 / 00:00
    Automático

    Cifra Club Pro

    Aproveite o Cifra Club com benefícios exclusivos e sem anúncios
    Cifra Club Pro
    Aproveite o Cifra Club com benefícios exclusivos e sem anúncios
    OK