Cifra Club

Ousado Amor

4life

Cifra: Principal (violão e guitarra)
tom: G
Em             D4
  Antes de eu falar
             C9
Tu cantavas sobre mim
Em               D4
    Tu tens sido tão
         C9
Tão bom     pra mim
Em                   D4
    Antes de eu respirar
              C9
Sopraste Tua vida em mim
Em               D4
    Tu tens sido tão
        C9
Tão bom    pra mim

[Refrão]

        Em         D4
Oh, impressionante, infinito
     C9           G
E ousado amor de Deus
         Em        D4
Oh, que deixa as noventa e nove
 C9              G
Só pra me encontrar
               Em             D4
Não posso comprá-lo,  nem merecê-lo
         C9          G
Mesmo assim se entregou
        Em         D4
Oh, impressionante, infinito
     C9           G
E ousado amor de Deus

( Em  D4  C9  G )
( Em  D4  C9  G )

[Solo]

E|-3-3-3-3------------------5-5-5-5-3-3----------------|
B|---------7-7-7-7-5-5-3----------------7-7-5-5-3------|
G|------------------------4-----------------------4----|
D|-----------------------------------------------------|
A|-----------------------------------------------------|
E|-----------------------------------------------------|

[Segunda parte]

Em             D4
    Inimigo eu fui
              C9
Mas Teu amor lutou por mim
Em               D4
    Tu tens sido tão
        C9
Tão bom    pra mim
Em              D4
    Não tinha valor
          C9
Mas tudo pagou por mim
Em               D4
    Tu tens sido tão
        C9
Tão bom    pra mim

[Refrão]

        Em         D4
Oh, impressionante, infinito
     C9           G
E ousado amor de Deus
         Em        D4
Oh, que deixa as noventa e nove
 C9              G
Só pra me encontrar
               Em             D4
Não posso comprá-lo,  nem merecê-lo
         C9          G
Mesmo assim se entregou
        Em         D4
Oh, impressionante, infinito
     C9           G
E ousado amor de Deus

( Em  D4  C9  G )
( Em  D4  C9  G )

[Solo]

E|-3-3-3-3------------------5-5-5-5-3-3----------------|
B|---------7-7-7-7-5-5-3----------------7-7-5-5-3------|
G|------------------------4-----------------------4----|
D|-----------------------------------------------------|
A|-----------------------------------------------------|
E|-----------------------------------------------------|

[Terceira parte]

Em
    Traz luz para as sombras

Escala montanhas, pra me encontrar

Derruba muralhas

Destrói as mentiras, pra me encontrar
                  D4
Traz luz para as sombras
           C9                   G
Escala montanhas  pra me encontrar
Em            D4
    Derruba muralhas
               C9                  G
Destrói as mentiras, pra me encontrar
Em                   D4
    Traz luz para as sombras
           C9                   G
Escala montanhas, pra me encontrar
Em            D4
    Derruba muralhas
               C9                  G
Destrói as mentiras, pra me encontrar
Em                   D4
    Traz luz para as sombras
           C9                   G
Escala montanhas, pra me encontrar
Em            D4
    Derruba muralhas
               C9                  G
Destrói as mentiras, pra me encontrar

[Refrão]

        Em         D4
Oh, impressionante, infinito
     C9           G
E ousado amor de Deus
         Em        D4
Oh, que deixa as noventa e nove
 C9              G
Só pra me encontrar
               Em             D4
Não posso comprá-lo,  nem merecê-lo
         C9          G
Mesmo assim se entregou
        Em         D4
Oh, impressionante, infinito
     C9           G
E ousado amor de Deus

( Em  D4  C9  G )
( Em  D4  C9  G )

[solo]

E|-3-3-3-3------------------5-5-5-5-3-3----------------|
B|---------7-7-7-7-5-5-3----------------7-7-5-5-3------|
G|------------------------4-----------------------4----|
D|-----------------------------------------------------|
A|-----------------------------------------------------|
E|-----------------------------------------------------|
00:00 / 00:00
Outros vídeos desta música
Repetir
Outros vídeos desta música
Composição de Caleb Culver / Cory Asbury / Ran Jackson
Colaboração e revisão:
  • ANA SANTOS
32.157 exibições
    • ½ Tom
    • A
    • Bb
    • B
    • C
    • Db
    • D
    • Eb
    • E
    • F
    • F#
    • G
    • Ab
  • Adicionar à lista

    0 comentários

    Ver todos os comentários

    Conseguiu tocar?

    15 Tocaram 5 Ainda não

    Grave um vídeo tocando Ousado Amor e nos envie!

    Entre para oCifra Club PRO

    Tenha acesso a benefícios exclusivos no App e no Site

    • Chega de anúncios

    • Prioridade de compra em lançamentos

    • Mais recursos no app do Afinador

    • Atendimento Prioritário

    • Descontos nos produtos Cifra Club

    • Ajude a produzir mais conteúdo

    00:00 / 00:00

    Cifra Club Pro

    Aproveite o Cifra Club com benefícios exclusivos e sem anúncios
    Cifra Club Pro
    Aproveite o Cifra Club com benefícios exclusivos e sem anúncios
    OK