Cifra Club

Aprenda

Jugando Con Fuego

6 Voltios

Cifra: Principal (violão e guitarra)
Tom: G
Jugando con fuego


INTRO:
1ra guitarra

E------------------------------------------------------------------
B------------------------------------------------------------------
G-5-5-5-5-5-5-x-x-x------------------------------------------------
D-5-3-3-3-3-3-x-x-x-5-5-5-3-x-x-x-7-7-7-7-x-x-x-3-3-3-3------------
A-3-3-3-3-3-3-x-x-x-5-5-5-5-x-x-x-7-7-7-7-x-x-x-3-3-3-3------------
E-------------------3-3-5-3-x-x-x-5-5-5-5-x-x-x-1-1-1-1------------   x2

2da guitarra

E------------------------------------------------------------------
B------------------------------------------------------------------
G------------------------------------------------------------------
D------------5-5-3-2--------3-2-----------3-2-0--------------------
A-------------------------------3------------------------5-5-3-2---
E------------------------------------------------------------------


VERSO 1 :


E---------------------------------------------------------
B---------------------------------------------------------
G-5-5-5-5-5-5---------------------------------------------
D-5-3-3-3-3-3----5-5-5-3----7-7-7-7----3-3-3-3------------
A-3-3-3-3-3-3----5-5-5-5----7-7-7-7----3-3-3-3------------
E----------------3-3-5-3----5-5-5-5----1-1-1-1------------   x2


Verso 2:


E-----------------------------------------------------------------
B-----------------------------------------------------------------
G------------9-9-9-9-9------------------5-5-5-5-5-----------------
D-5-5-5-5-5--9-9-9-9-9--10-10-10-10-10--5-5-5-5-5-----------------
A-5-5-5-5-5--7-7-7-7-7---8--8--8--8--8--3-3-3-3-3-----------------
E-3-3-3-3-3-------------------------------------------------------   x3


E------------------------------------------------------------------
B------------------------------------------------------------------
G-5-5-5-5-5-5-x-x-x------------------------------------------------
D-5-3-3-3-3-3-x-x-x-5-5-5-3-x-x-x-7-7-7-7-x-x-x-3-3-3-3------------
A-3-3-3-3-3-3-x-x-x-5-5-5-5-x-x-x-7-7-7-7-x-x-x-3-3-3-3------------
E-------------------3-3-5-3-x-x-x-5-5-5-5-x-x-x-1-1-1-1------------   x2

2da guitarra

E------------------------------------------------------------------
B------------------------------------------------------------------
G------------------------------------------------------------------
D------------5-5-3-2--------3-2-----------3-2-0--------------------
A-------------------------------3------------------------5-5-3-2---
E------------------------------------------------------------------


E-----------------------------------------------------------------
B-----------------------------------------------------------------
G-----------------------------------------------------------------
D-7-------7-------7-------7-------5-------5-------5-------5-------
A-7-7-7-8-7-5-5-7-7-3-3-5-7-5-3-2-5-3-3-5-5-2-2-3-5-------5-3-2-1-
E-5-------5-------5-------5-------3-------3-------3-5-5-7-3-------


Verso 3 :


E-------------------------------------------------------------------
B-------------------------------------------------------------------
G-----------------------5-5-5-5-5-5-5-------------------------------
D-3-3-3-3-3--5-5-5-5-5--5-5-5-5-5-5-5-------------------------------
A-3-3-3-3-3--5-5-5-5-5--3-3-3-3-3-3-3-------------------------------
E-1-1-1-1-1--3-3-3-3-3----------------------------------------------


E-------------------------------------------------------------------
B-------------------------------------------------------------------
G-------------------------------------------------------------------
D-3-3-3-3-3--5-5-5-5-5--7-7-7-7-7--5-5-5-5-5--3--5------------------
A-3-3-3-3-3--5-5-5-5-5--7-7-7-7-7--5-5-5-5-5--3--5------------------
E-1-1-1-1-1--3-3-3-3-3--5-5-5-5-5--3-3-3-3-3--1--3------------------


E------------------------------------------------------------
B------------------------------------------------------------
G------------------------------------------------------------
D--2--5-5-3-2---2--5-5-3-2--2--5-5-3-2--3--3-2---------------
A-3-3------------3-----------3---------2-2-----5-------------
E--------------3-----------1---------------------------------

E-----------------------------------------------------------------
B-----------------------------------------------------------------
G-5-------------------------------5-------------------------------
D-5-------5-------3-------5-------5-------5-------3-------5-------
A-3-3-2-0-5-3-2-0-3-3-2-0-5-3-2-0-3-5-3-2-5-5-3-2-3-5-3-2-5-3-2-0-
E---------3-------1-------3---------------3-------1-------3-------


E-------------------------------------------------------------------
B-------------------------------------------------------------------
G-5555555---------7777777-9-7-6-------------------------------------
D-5555555-5555555-7777777-9-7-6-------------------------------------
A-3555555-5555555-9999999-7-5-4-------------------------------------
E---------3333333---------------------------------------------------


VERSO 1 :


E---------------------------------------------------------
B---------------------------------------------------------
G-5-5-5-5-5-5---------------------------------------------
D-5-3-3-3-3-3----5-5-5-3----7-7-7-7----3-3-3-3------------
A-3-3-3-3-3-3----5-5-5-5----7-7-7-7----3-3-3-3------------
E----------------3-3-5-3----5-5-5-5----1-1-1-1------------   x2


Verso 2:


E-----------------------------------------------------------------
B-----------------------------------------------------------------
G------------9-9-9-9-9------------------5-5-5-5-5-----------------
D-5-5-5-5-5--9-9-9-9-9--10-10-10-10-10--5-5-5-5-5-----------------
A-5-5-5-5-5--7-7-7-7-7---8--8--8--8--8--3-3-3-3-3-----------------
E-3-3-3-3-3-------------------------------------------------------   x4


E-----------------------------------------------------------------
B-----------------------------------------------------------------
G-----------------------------------------------------------------
D-7-------7-------7-------7-------5-------5-------5-------5-------
A-7-7-7-8-7-5-5-7-7-3-3-5-7-5-3-2-5-3-3-5-5-2-2-3-5-------5-3-2-1-
E-5-------5-------5-------5-------3-------3-------3-5-5-7-3-------


Verso 3 :


E-------------------------------------------------------------------
B-------------------------------------------------------------------
G-----------------------5-5-5-5-5-5-5-------------------------------
D-3-3-3-3-3--5-5-5-5-5--5-5-5-5-5-5-5-------------------------------
A-3-3-3-3-3--5-5-5-5-5--3-3-3-3-3-3-3-------------------------------
E-1-1-1-1-1--3-3-3-3-3----------------------------------------------


E-------------------------------------------------------------------
B-------------------------------------------------------------------
G-------------------------------------------------------------------
D-3-3-3-3-3--5-5-5-5-5--7-7-7-7-7--5-5-5-5-5--3--5------------------
A-3-3-3-3-3--5-5-5-5-5--7-7-7-7-7--5-5-5-5-5--3--5------------------
E-1-1-1-1-1--3-3-3-3-3--5-5-5-5-5--3-3-3-3-3--1--3------------------


E------------------------------------------------------------
B------------------------------------------------------------
G------------------------------------------------------------
D--2--5-5-3-2---2--5-5-3-2--2--5-5-3-2--3--3-2---------------
A-3-3------------3-----------3---------2-2-----5-------------
E--------------3-----------1---------------------------------





Un saludo para todas las bandas de aqp y para happy
Composição de 6 Voltios
470 exibições
    • ½ Tom
    • A
    • Bb
    • B
    • C
    • Db
    • D
    • Eb
    • E
    • F
    • F#
    • G
    • Ab
  • Adicionar à lista

    0 comentários

    Mostrar mais comentários

    Conseguiu tocar?

    0 Tocaram 0 Ainda não

    Grave um vídeo tocando Jugando Con Fuego e mande pra gente!

    00:00 / 00:00
    outros vídeos desta música
    repetir qualidade Automático
    Outros vídeos desta música
    00:00 / 00:00
    Automático

    Cifra Club Pro

    Aproveite o Cifra Club com benefícios exclusivos e sem anúncios
    Cifra Club Pro
    Aproveite o Cifra Club com benefícios exclusivos e sem anúncios
    OK