Cifra Club

Aprenda

Por Ti

6 Voltios

Cifra: Principal (violão e guitarra)
Tom: D
Por ti
Descomprension


     E5            G#5
Quiero estar contigo otra vez
       C#5          A5       B5
vamonos a un lugar lejos d aqui
      G#5      C#5      B5
quierooo  verte sonreiiiir


        E5            G#5
y escuchar q todo esta bien
     C#5               A5     B5
quiero estar  y siempre estaré

G#5      C#5
Daría todo x ti
     A5         C#5           B5
mi guitarra y todas mis canciones
      G#5      C#5      B5
quieeeroooo verte sonreiiir

        E5            G#5
siento aun lo mismo d ayer
        C#5                  A5     B5
recuerdo el olor d tu perfume
      G#5      C#5      B5
quiero tenerte cerca otra vez

        E5            G#5
y si es q no demuestras  q si
   C#5       A5        B5
llévame sácame d aquí


G#5      C#5
Daría todo x ti
        A5     D#5              B5
mi guitarra y todas mis canciones
      G#5      C#5      B5
quieeeroooo verte sonreír


  G#5       C#5        A5                  B5
Rompí el hielo x ti y tuve  el tiempo d mi vida
  G#5    C#5                  A5            B5
daría mi vida x ti y no basta nunca bastara........

   E5        G#5          C#5      A5        B5
1|--------------------------------------------------|
2|--------------------------------------------------|
3|-4-4---4---6-6-4---4------------------------------|
4|-----6-----------6------6-6-4----4-6-7-6-4---4----|
5|------------------------------7------------7------|
6|--------------------------------------------------|

   G#5        C#5        A5      B5    E5
1|--------------------------------------------------|
2|--------------/5-7-9-5-10-10-9-7-5-4-5----5-------|
3|-4-4----4---6--------------------------4----------|
4|-----6--------------------------------------------|
5|--------------------------------------------------|
6|--------------------------------------------------|


  E5            G#5
Si te falle perdóname
           C#5                  A5     B5
No fue nunca mi intención lastimarte
      G#5      A#5      B5
No puedo verte llorar

        E5            G#5
siento aun lo mismo q ayer
    C#5           A5         B5
recuerdo el olor d tu perfume
      G#5      C#5      B5
quiero tenerte cerca otra vez


G#5      C#5
Daría todo x ti
   A5          C#5             B5
mi guitarra y todas mis canciones
      G#5      C#5      B5
quieeeroooo verte sonreiiir


  G#5       C#5        A5                 B5
Rompí el hielo x ti y pude  el tiempo d mi vida
  G#5    C#5         A5    c#5    B5               B5
daría mi vida x ti y no basta nunca bastaraaaaaaaaaaa........

   E5        G#5          C#5      A5        B5
1|--------------------------------------------------|
2|--------------------------------------------------|
3|-4-4---4---6-6-4---4------------------------------|
4|-----6-----------6------6-6-4----4-6-7-6-4---4----|
5|------------------------------7------------7------|
6|--------------------------------------------------|

   G#5        C#5        A5      B5    E5
1|--------------------------------------------------|
2|--------------/5-7-9-5-10-10-9-7-5-4-5----5-------|
3|-4-4----4---6--------------------------4----------|
4|-----6--------------------------------------------|
5|--------------------------------------------------|
6|--------------------------------------------------|

   E5          G#5                  C#5         A5        B5
1|-------------------------------------------------------------------|
2|-5-----------5--10--5--9--5--7----5-----------5--10--5--7--9--7-5--|
3|---4----4-6-------------------------4------------------------------|
4|-----6--------------------------------6h7 6------------------------|
5|-------------------------------------------------------------------|
6|-------------------------------------------------------------------|

   G#5            C#5              A5       B5
1|-------------------------------------------------------------------|
2|-9--7--5--7--5--5-10--5-9--5-7---9--7--5--7--5---------------------|
3|-------------------------------------------------------------------|
4|-------------------------------------------------------------------|
5|-------------------------------------------------------------------|
6|-------------------------------------------------------------------|

        E5                       E5
1|-----------------------------------|
2|-----------------------------------|
3|-----------------------------------|
4|--------6----4h6p4-------6---4-----|
5|------7---7--------7---7---7---7---|
6|-----------------------------------|
6|-----------------------------------|

Consultas:

*
1.439 exibições
    • ½ Tom
    • A
    • Bb
    • B
    • C
    • Db
    • D
    • Eb
    • E
    • F
    • F#
    • G
    • Ab
  • Adicionar à lista

    0 comentários

    Mostrar mais comentários

    Conseguiu tocar?

    0 Tocaram 0 Ainda não

    Grave um vídeo tocando Por Ti e mande pra gente!

    00:00 / 00:00
    outros vídeos desta música
    repetir qualidade Automático
    Outros vídeos desta música
    00:00 / 00:00
    Automático

    Cifra Club Pro

    Aproveite o Cifra Club com benefícios exclusivos e sem anúncios
    Cifra Club Pro
    Aproveite o Cifra Club com benefícios exclusivos e sem anúncios
    OK