Cifra Club

Ability To Create A War

A Skylit Drive

Tab de baixo: Principal
Tuning: Drop D (DADG)

Intro
1.
G|-------|
D|-------|
A|-1~-1~-|
D|-------|

"Save Me!!!"
2.
G|------------------------------------------|
D|------------------------------------------|
A|---------------------------------1~-1~----|--x2
D|-000x--00-0000000-0x--000-0x--00----------|

"Im lost in the mind of a moster..."
3.
G|---------------------------------------------------|
D|---------------------------------------------------|
A|--------------------------------------------1~--1~-|--x2
D|-000-000-0-0-0-000-000-0-0-0-000-000-0-0-0-0---0---|

"Save Me!!!"
4.
G|---------------------------------------|
D|---------------------------------------|
A|--------------------------------1~--1~-|--x2
D|-000x--00-000000000x--000x--00-0---0---|

5.
G|----------------------------------------------------|
D|----------------------------------------------------|
A|----------------------------------------------------|
D|-0~-------------------------------------------------|

Lyrics:

The sky parts and my prayers fall before me
Will faith be the question
Or with the question test my faith
Save me
I am lost in the mind of a monster
Save me
00:00 / 00:00
Outros vídeos desta música
Repetir
Outros vídeos desta música
Composição de A Skylit Drive
Colaboração e revisão:
  • Lucian Santos
643 exibições

0 comentários

Ver todos os comentários

Entre para oCifra Club PRO

Tenha acesso a benefícios exclusivos no App e no Site

  • Chega de anúncios

  • Prioridade de compra em lançamentos

  • Mais recursos no app do Afinador

  • Atendimento Prioritário

  • Descontos nos produtos Cifra Club

  • Ajude a produzir mais conteúdo

00:00 / 00:00

Cifra Club Pro

Aproveite o Cifra Club com benefícios exclusivos e sem anúncios
Cifra Club Pro
Aproveite o Cifra Club com benefícios exclusivos e sem anúncios
OK