Cifra Club

Aprenda

Back Seat Confidential

AC/DC

Cifra: Principal (violão e guitarra)
Tom: C
 Tuning- standard
 Bend- b
 Unison bend- U.B. 
 Hammeron- h
 Pulloff- p
 Palm mute|- P.M.
 Tremolo picking- \\\
 Slide|- /
 
   
   Intro (guitar 1)
 E|------------------------------------|---2------------------|
 B|------------------------------------|---3-2-2--------------|
 G|------------------------------------|---2-2-2--------------|
 D|--2\\\----2\\\----2\\\--------------|---0-0-0--------------|
 A|--2\\\----2\\\----2\\\--------------|------------------2-2-|
 E|--0\\\----0\\\----0\\\---Pick slide|-|----------3-0-3-0-0-0-|

 E|--12------10-------9-------7-------|----2------------------|
 B|--15-U.B.-13-U.B.-12-U.B.-10-U.B.--|----3-2-2--------------|
 G|-----------------------------------|----2-2-2--------------|
 D|-----------------------------------|----0-0-0--------------|
 A|-----------------------------------|-------------------2-2-|
 E|-----------------------------------|-----------3-0-3-0-0-0-|

 E|--12------12------12---------12---------12-------|----2-----------------|
 B|--15-U.B.-15-U.B.-15-U.B.-15-15-U.B.-15-15-U.B.--|----3-2-2-------------| 
 G|-------------------------------------------------|----2-2-2-------------|
 D|-------------------------------------------------|----0-0-0-------------|
 A|-------------------------------------------------|------------------2-2-|
 E|-------------------------------------------------|----------3-0-3-0-0-0-|

 E|-------------------------------|---2--------------------|-------------|
 B|-5---5-5-5---------------------|---3-2-2----------------|-------------|
 G|-7---7-6-4---------------------|---2-2-2----------------|-------------|
 D|-----------5--7----------------|---0-0-0----------------|-------------|
 A|----------------7--------------|-------------------2-2--|----2///-----|
 E|----------------0---Pick slide|-|-----------3-0-3-0-0-0--|-----------0-|

 E|------------------------------------------------------|
 B|------------------------------------------------------|
 G|------------------------------------------------------|
 D|--------0------------0----------0---------------------| x2  This part is
 A|--0-1-2--------0-1-2-------0-1-2--2-1-0------------0--|     is very fast  
 E|-3----------0-3---------0-3--------------3-0-0-0-3----| and takes a while 
                                                                to learn
 
 E|------------------------------------------------------|
 B|------------------------------------------------------|
 G|------------------------------------------------------|
 D|-----0----------------------------0-------------------| x4
 A|-1-2---2-1-0---------------0---1-2--2-1-0-----2-----0-|
 E|-------------3-0-3-0-0--0-3---------------3-0---0-3---|
   
   Verse (guitars 1 and 2)
 E|--------|---------3------------------|
 B|--------|---------2-2-2--------------|
 G|--------|---------0-2-2--------------| x8
 D|--2-----|-----------0-0--------------|
 A|--2-----|------------------------2-2-|
 E|--0-----|----------------3-0-3-0-0-0-|

 E|----------|-----------|----------------|----------------------|
 B|----------|---3--3--3-|----------------|---3----------3-------|
 G|----------|---2--2--2-|---2--2--2------|---2--2--2----2--2--2-|
 D|--2--2--2-|---0--0--0-|---2--2--2----2-|---0--2--2----0--2--2-|
 A|--2--2--2-|-----------|---0--0--0----2-|------0--0-------0--0-|
 E|--0--0--0-|-----------|--------------0-|----------------------|

   Verse (guitars 1 and 2)
 E|---3---------------------|---------|
 B|---2-2-2-----------------|---------|
 G|---0-2-2-----------------|---------| x8
 D|-----0-0-----------------|-----2---|
 A|-------------------2-2---|-----2---|
 E|-----------3-0-3-0-0-0---|-----0---|


 E|----------|-----------|----------------|------------------------------|
 B|----------|---3--3--3-|----------------|------------------------------|
 G|----------|---2--2--2-|---2--2--2------|------------------------------|
 D|--2--2--2-|---0--0--0-|---2--2--2----2-|-----------0------------------|
 A|--2--2--2-|-----------|---0--0--0----2-|-----0-1-2---2-1-0------------|
 E|--0--0--0-|-----------|--------------0-|-0-3---------------3-0-3-0--0-|

   Solo (guitar 1)
 E|---------------------|-----------|------------------|--------------|
 B|-8b--5-8-5---5-------|-----------|------------------|--------------|
 G|-----------7---7-5---|-----------|--4b-4b-4-2---2-4-|--4b--4--2--2-| 
 D|-------------------7-|---7b-7-7b-|------------4-----|--------------|
 A|---------------------|-----------|------------------|--------------|
 E|---------------------|-----------|------------------|--------------|

 E|----0-5-3-0--------|------------------------------|-----------------|
 B|-3b---------3-1----|--------9-----------10--------|-----------------|
 G|----------------2--|---7----9----7-9\11-----11-11-|-9-7-9-7-9-7-7---|
 D|-------------------|-9---9-----9------------------|---------------9-|
 A|-------------------|------------------------------|-----------------|
 E|-------------------|------------------------------|-----------------|

 E|--7-10-7-----7------------------------------|---7///--|-------------------|
 B|----------10----10-7-10----7----------------|---7///--|-------------------|
 G|-------------------------9---9--7-9-7-------|---------|-------------------|
 D|---------------------------------------9-7--|---------|-----2-------------|
 A|--------------------------------------------|---------|-----2-------------|
 E|--------------------------------------------|---------|-----0---Pick slide|

 E|-------|----------|----------|--5b-5-3-0-|---------|-----------|
 B|-------|--3-5-5-3-|----------|-----------|---------|-----------|
 G|-------|----------|----------|-----------|---------|---2b-2----|
 D|-2-2-2-|----------|--2-2-2---|-----------|---2-2-2-|--------2--|
 A|-2-2-2-|----------|--2-2-2---|-----------|---2-2-2-|-----------|
 E|-0-0-0-|----------|--0-0-0---|-----------|---0-0-0-|-----------|

 E|-------|---------|---------|----------|--------|-5------5-----5------5----|
 B|-------|---------|---------|----------|--------|-8-U.B.-8-U.B|-8-U.B.-8-U.B|
 G|-------|---------|---------|-2b-2-0-2-|--------|--------------------------|
 D|-2-2-2-|-2-0-----|--2-2-2--|----------|--2-2-2-|--------------------------|
 A|-2-2-2-|-----2---|--2-2-2--|----------|--2-2-2-|--------------------------|
 E|-0-0-0-|-------3-|--0-0-0--|----------|--0-0-0-|--------------------------|

 E|-------|-5-3--5b--|----------|--5b-5-3-0-|--------|--10///----|
 B|-------|----------|----------|-----------|--------|--12///----|
 G|-------|----------|----------|-----------|--------|-----------|
 D|-2-2-2-|----------|--2-2-2---|-----------|--2-2-2-|-----------|
 A|-2-2-2-|----------|--2-2-2---|-----------|--2-2-2-|-----------|
 E|-0-0-0-|----------|--0-0-0---|-----------|--0-0-0-|-----------|

 E|-10b-10-8-7-5-----------|-----------|--------------|---------------------| 
 B|--------------8-7-5---5-|-3-5-3-1---|-3b-3-1---3-1-|-----8---------------|
 G|--------------------7---|---------2-|--------2-----|-7b-9--9-7-9-7--7-5--| 
 D|------------------------|-----------|--------------|---------------7----7| 
 A|------------------------|-----------|--------------|---------------------|
 E|------------------------|-----------|--------------|---------------------|
 
 E|------------------------------|--------------------------|
 B|---------------------10-------|-10-7-0-9-6-0-8-5-0-7-4-0-|
 G|---7-9-7---9-7----11----11-11-|--------------------------| 
 D|-9-------9-----9--------------|--------------------------|
 A|------------------------------|--------------------------|
 E|------------------------------|--------------------------|
 
 E|----7------7------7------7-|-10-7------7--7--7-|--5///--|
 B|-10b---10b----10b----10b---|-------10----------|--7///--|
 G|---------------------------|-------------------|--------|
 D|---------------------------|-------------------|--------|
 A|---------------------------|-------------------|--------|
 E|---------------------------|-------------------|--------|
 

  Verse (guitars 1 and 2)
 E|---3---------------------|---------|
 B|---2-2-2-----------------|---------|
 G|---0-2-2-----------------|---------| x8
 D|-----0-0-----------------|-----2---|
 A|-------------------2-2---|-----2---|
 E|-----------3-0-3-0-0-0---|-----0---|


 E|----------|-----------|----------------|-------------------------|
 B|----------|---3--3--3-|----------------|-------------------------|
 G|----------|---2--2--2-|---2--2--2------|-------------------------|
 D|--2--2--2-|---0--0--0-|---2--2--2----2-|--2///--2///---2--2--2---|
 A|--2--2--2-|-----------|---0--0--0----2-|--2///--2///---2--2--2---|
 E|--0--0--0-|-----------|--------------0-|--0///--0///---0--0--0---|
   
   Outro (guitar 1)
 E|-----12-----12-------------------------|
 B|-15b----15b----15-12-------------------|
 G|---------------------14-12-14-12-------| x2
 D|---------------------------------14-14-|
 A|---------------------------------------|
 E|---------------------------------------|

 E|-----|
 B|-----|
 G|-----|
 D|--2--|
 A--2--|
 e|--0--|
Colaboração e revisão:
  • Taino Vieira
3.227 exibições
    • ½ Tom
    • A
    • Bb
    • B
    • C
    • Db
    • D
    • Eb
    • E
    • F
    • F#
    • G
    • Ab
  • Adicionar à lista

    0 comentários

    Mostrar mais comentários

    Conseguiu tocar?

    0 Tocaram 0 Ainda não

    Grave um vídeo tocando Back Seat Confidential e mande pra gente!

    00:00 / 00:00
    outros vídeos desta música
    repetir qualidade Automático
    Outros vídeos desta música
    00:00 / 00:00
    Automático
    OK