Cifra Club

Aprenda

Badlands

AC/DC

Cifra: Principal (violão e guitarra)
Tom: G
Intro
Guitar 1
E-----------------------|---------------|
B---0--5--0--3--0-------|---------------|
G---0--5--0--3--0-------|---------------|
D---0--5--0--3--0-------|---guitar 2----|
A-----------------------|---reapeats----|
E-----------------------|---------------|
Guitar 2
E-----------------------|---------------|
B---0--5--0--3--0---0--5|--0--3--0------|
G---0--5--0--3--0---0--5|--0--3--0------|
D---0--5--0--3--0---0--5|--0--3--0------|
A-----------------------|---------------|
E-----------------------|---------------|


Main riff & Chorus, both guitars
E----------------------------------------------|
B---0--5--0--3--0---0--5--0--3--0---0--2--0----|
G---0--5--0--3--0---0--5--0--3--0---0--2--0----|
D---0--5--0--3--0---0--5--0--3--0---0--2--0----|
A----------------------------------------------|
E----------------------------------------------|

Pre Chorus
guitar 1
E-------------------------------------------------------------------------------------------
B-----3-5-5-5-3-5-3-0--0-3-5-5-3-5-5-3-0--0-3-5-5-5-5-3-5-5-5-3-/7---7--7--7-------------0--
G-----3-5-5-5-3-5-3-0--0-3-5-5-3-5-5-3-0--0-3-5-5-5-5-3-5-5-5-3-/7---7--7--7-------------0--
D-----3-5-5-5-3-5-3-0--0-3-5-5-3-5-5-3-0--0-3-5-5-5-5-3-5-5-5-3-/7---7--7--7----3-3-3----0--
A-------------------------------------------------------------------------------3-3-3-------
E-------------------------------------------------------------------------------1-1-1-------
Guitar 2                                                                               to chorus
E----------------------------------------------------------------------------------------3--
B-----3-5-5-5-5-5-3-0--0-3-5-5-5-5-5-3-0--0-3-5-5-5-5-3-5-5-5-3-/---3--3--3--3-----------3--
G-----3-5-5-5-5-5-3-0--0-3-5-5-5-5-5-3-0--0-3-5-5-5-5-3-5-5-5-3-/---2--2--2--2--2-2-2-2--0--
D-----3-5-5-5-5-5-3-0--0-3-5-5-5-5-5-3-0--0-3-5-5-5-5-3-5-5-5-3-/---0--0--0--0--3-3-3-3--0--
A-------------------------------------------------------------------------------3-3-3-3-----
E----------------------------------------------------------------------------------------3--


Bit Before solo                repeat
E|-----------------------------------||
B|--------------------5-5-3-5-7-8----||
G|---------3----5-----5-5-3-5-7-8----||
D|---5-----3----5-----5-5-3-5-7-8----||
A|---5-----1----3--------------------||
E|---3-------------------------------||
guitar 2
E|-----------------------------------||
B|---0-----3----5-----5-5-3-5-7-7b---||
G|---0-----3----5-----5-5-3-5-7-7b---||
D|---0-----3----5-----5-5-3-5-7------||
A|-----------------------------------||
E|---3-------------------------------||


  > > > > > > > > >     SOLO 
E|--------------------||-----------------------------------------------------------------------|
B|--5-5-5-5-5-5-5-5---||----7-7-7-7-7-7-7-7-7-7-7-7-7-7-7-7-7-7-7-7-7-7-7-7-7-7-7-7-7-7-7-7-7--|
G|*-5-5-5-5-5-5-5-5-*-||----7-7-7-7-7-7-7-7-7-7-7-7-7-7-7-7-7-7-7-7-7-7-7-7-7-7-7-7-7-7-7-7-7--|
D|*-5-5-5-5-5-5-5-5-*-||----> > > > > > > > > > > > > > > > > > > > >  > > > >  > > > > > > ---|
A|*-3-3-3-3-3-3-3-3-*-||-----------------------------------------------------------------------|
E|--------------------||-----------------------------------------------------------------------|

E|----------------------------------------------------------------8-10-10-\--5-5b--b-b-r-------|
B|-----------------------3--5--7-7-7------/8b~~~-8~~~8~~~8~~~8~~~------------5-5b--b-b-r-------|
G|------------5----3-----3--5--7b7b7b--7\------------------------------------------------7~~~--|
D|----5~~~~------5----5------------------------------------------------------------------------|
A|---------------------------------------------------------------------------------------------|
E|---------------------------------------------------------------------------------------------|

E|-----------------------13b-b-r-11--------------------------------------------------12b-------|
B|--8~~-8-7-5-------8----13b-b-r-11----------------------12-12b-12-----------------------------|
G|------------7^8^9-----------------12----10-12-12~~~\-------------14--9-10^9^10-\-------------|
D|---------------------------------------------------------------------------------------------|
A|---------------------------------------------------------------------------------------------|
E|---------------------------------------------------------------------------------------------|

E|-------------10----10-12--12--12-12-12-12-12-12-12----------------------------15b-15b-15b-15b|
B|--15-14-12---10-12--------15--15b15b15b15b15b15b15b---14b-14-12------------------------------|
G|----------------------------------------------------------------14-12-12~~~~-----------------|
D|----------------------------------------------------------------------------/----------------|
A|---------------------------------------------------------------------------------------------|
E|---------------------------------------------------------------------------------------------|

E|--15~~~~~~~~~~~~~~~~~~~~~~~~---|
B|-------------------------------|
G|-------------------------------|
D|-------------------------------|
A|-------------------------------|
E|-------------------------------| end of first solo


second solo
E|---12-15-15-15-15-15---------------------15b-15-14-12-14-12----------14-12-15-12-14-15b~~~---|
B|---15b15b15b15b15b15b--14^12--12~~~-------------------------15-13-12-------------------------|
G|-----------------------14^12--12~~~~~~~~-----------------------------------------------------|
D|----------------------------14---------------------------------------------------------------|
A|---------------------------------------------------------------------------------------------|
E|---------------------------------------------------------------------------------------------|

E|--15-17-19b-17^15/19-15------14----14-15~~~~~--15-15~~~-17b-\--------------------------------|
B|--------------------------15----15-----------------------------0--5--0--3--0---0--5--0--3--0-|
G|---------------------------------------------------------------0--5--0--3--0---0--5--0--3--0-|
D|---------------------------------------------------------------0--5--0--3--0---0--5--0--3--0-|
A|---------------------------------------------------------------------------------------------|
E|---------------------------------------------------------------------------------------------|
          pick slide (dont let go of 12, scrape while holding the note)
E|----------------------------------------||
B|------------------------------------3---||
G|--12b----x-x-x\\\\\\\\-(12)\0-------0---||
D|---------x-x-x\\\\\\\\\-------------0---||
A|---------x-x-x\\\\\\\\\\\\\\\\----------||
E|------------------------------------
Composição de Angus Young / Brian Johnson / Malcolm Young
5.824 exibições
    • ½ Tom
    • A
    • Bb
    • B
    • C
    • Db
    • D
    • Eb
    • E
    • F
    • F#
    • G
    • Ab
  • Adicionar à lista

    0 comentários

    Mostrar mais comentários

    Conseguiu tocar?

    0 Tocaram 0 Ainda não

    Grave um vídeo tocando Badlands e mande pra gente!

    00:00 / 00:00
    outros vídeos desta música
    repetir qualidade Automático
    Outros vídeos desta música
    00:00 / 00:00
    Automático
    OK