Cifra Club

Aprenda

Bedlam In Belgium

AC/DC

Cifra: Principal (violão e guitarra)
Tom: G
ligh picking
E|-----------|-------------------------|
B|--5-5-5-5-5|-5-5-5-5-5-5-5-5-5-5-5-5-|
G|--2-2-2-2-2|-2-2-2-2-2-2-2-2-2-2-2-2-|
D|-2-2-------|-------------------------|
A|-----------|-------------------------|
E|-----------|-------------------------|


intro and main riff guitar 2 enters 3rd time
 g1
E|--------------------|
B|-------3--3--3--3---|
G|--2----2--2--0--2---|
D|--2----0--0--0--0---|
A|--0----------0------|
E|--------------------| repeat
 g2
E|--------------------| repeat
B|--------------------| 
G|--------------------| 
D|------7--7--5--7----| 
A|--7---5--5--5--5----| 
E|--5-----------------|

  fill
E---------------------|
B---------------------|
G--------5-----5------|
D---------------------|
A---5-------5-----5---|
E---------------------|

pre chorus
E----------------|--------------|--------------|
B---5------------|-------3---3--|-------3---3--|
G---5------------|-2---2-2-2-2--|-2---2-2-2-2--|
D---5------------|-2---2-0-2-0--|-2---2-0-2-0--|
A---3-----3-5-5--|-0---0---0----|-0---0---0----|
E----------------|--------------|--------------|

E-----------------------|----------------------|
B-----------------------|----------------------|
G---5-------------------|-7--------------------|
D---5-------------0--0-/|-7--------------------|
A---3-3-3-3-----3---3--/|-5-5-5-5-5-5-5-5-5-5-5|
E-----------------------|----------------------|

   chorus
        E------------------|-------------------|-----------------|
        B------------------|--------3-3---3----|-------3-3-0-3---|
        G----------x--7--5-|---2----2-2-2-2----|---2---2-2-0-2---|
        D----7--5--x--7--5-|---2----0-0-2-0----|---2---0-0-0-0---|
        A----7--5--x--5--3-|---0--------0------|---0-------------|
        E----5--3--x-------|-------------------|-----------3-----|
    Guitar 2
        E------------------|-------------------|-----------------|        
        B-------3-----3--1-|--------3-3-0-3----|-------3-3-0-3---|     
        G----2--0--0--2--0-|---2----2-2-0-2----|---2---2-2-0-2---|    
        D----2--0--0--0----|---2----0-0-0-0----|---2---0-0-0-0---|  
        A----0-----------3-|---0---------------|---0-------------|   
        E-------3----------|------------3------|-----------3-----|  
SOLO
E|---------------------------------------------------------------------------------------------|
B|-----12--15b-12~~--12-15^12---12---/7-9b~r^7----------<14>b~~---12---10b-10b-10b-----14b-12--|
G|--14-----------------------14------/7-9b~r^7-7---------------12----------------------14b-12--|
D|---------------------------------------------7-9~~-------------------------------------------|
A|----------------------------------------------------------------------------------/----------|
E|---------------------------------------------------------------------------------------------|

E|-----------------------12----12-12--12-12----12----12----12---12---12b~~---12^10---10--------|
B|----12--------13-13-12----12------12------15----15----15---15---15--------------12----10~~---|
G|-14-12--12-14--------------------------------------------------------------------------------|
D|-14------------------------------------------------------------------------------------------|
A|---------------------------------------------------------------------------------------------|
E|---------------------------------------------------------------------------------------------|

E|----------------------8-9-9b~~---12-12~~14/15-15-15-15--15-17b-15-17b-15-17b-----------------|
B|--7-x-7b-7b~~~-x------------------------14/15-15-15-15---------------------------------------|
G|--7-x-7b-7b~~--x\-/-\----------------------14-14-14-14------------------------x\-------------|
D|------------------------------------------------------------------------------x\-------------|
A|------------------------------------------------------------------------------x\-------------|
E|---------------------------------------------------------------------------------------------|

E|-------------------------------------------------------------------------------12----12----12|
B|-------------------------------------15b-15-12----12------------------------------15----15---|
G|-----------------------------------------------14----14-12---------12~~~~~-------------------|
D|--------12-14~12-14~12-14~--\-----------------------------/----------------------------------|
A|---------------------------------------------------------------------------------------------|
E|---------------------------------------------------------------------------------------------|
   "bedlum"
E|---\---------------------------17--15----17-17b~~~-------------------------------------------|
B|--------------------------------------17-----------------------------------------------------|
G|----------------------------------------------------x\---------------------------------------|
D|---------x\--------x\-------------------------------x\----12-14-12-14b~~~~~~-----------------|
A|---------x\--------x\----------------------------------/-------------------------------------|
E|------------5~~~~~~~---~~~~~-----------------------------------------------------------------|

E|--------|-------|-------------------------------------------------------|--------------------|
B|--------|-------|----------12-------------------------------------------|--------------------|
G|--------|-------|---14-14~~---14-12^14^12---12-14----12-14b-12-14~~~~---|--------------------|
D|--------|-------|------------------------14-----------------------------|--------------------|
A|--------|-------|-------------------------------------------------------|--------------------|
E|--------|-------|-------------------------------------------------------|--------------------|
 bedlum in beluim"
E|----------------------------------------------------------------17b-----17b---17b-17b-17b----|
B|---------------------------------------12-15-14-12----12-------------------------------------|
G|--14-14--14-12---14-14--14-12---12-14~~------------14----12----------------------------------|
D|--14-14--14-12---14-14--14-12----------------------------------------------------------------|
A|---------------------------------------------------------------------------------------------|
E|---------------------------------------------------------------------------------------------|

E|--17b^15---15------|-|--------12-12-----------------------------|-|--17^15-------------------|
B|---------17--------|-|--15----------15^12-----------------------|-|--------17-15-------------|
G|--------------14---|-|-----14-------------14~~~-~~~~~-~~~~-~~~--|-|--------------14/12~~-----|
D|--------------14---|-|------------------------------------------|-|--------------------------|
A|-------------------|-|------------------------------------------|-|--------------------------|
E|-------------------|-|------------------------------------------|-|--------------------------|

E|------12----12---12----------12-15-12-15-12-15----------12--10~~~~~--8-5---5-----------------|
B|---15----15------15b------15-------------------15-12----12---------------8---8-5---5---------|
G|-----------------------------------------------------14-12-----------------------7--7-7^9^7--|
D|--------------------------------------------------------12-----------------------------------|
A|---------------------------------------------------------------------------------------------|
E|---------------------------------------------------------------------------------------------|

E|-----------------------------------||
B|-----------------------------------||
G|-----------/-\-/-\-/-\-------------||
D|--7~~~~~~--/-\-/-\-/-\--x\----7-\--||
A|-----------/-\-/-\-/-\--x\----7-\--||
E|------------------------x\----5-\--||
4.252 exibições
    • ½ Tom
    • A
    • Bb
    • B
    • C
    • Db
    • D
    • Eb
    • E
    • F
    • F#
    • G
    • Ab
  • Adicionar à lista

    0 comentários

    Mostrar mais comentários

    Conseguiu tocar?

    0 Tocaram 0 Ainda não

    Grave um vídeo tocando Bedlam In Belgium e mande pra gente!

    00:00 / 00:00
    outros vídeos desta música
    repetir qualidade Automático
    Outros vídeos desta música
    00:00 / 00:00
    Automático
    OK