Cifra Club

Aprenda

Dirty Deeds Done Dirt Cheap

AC/DC

Cifra: Principal (violão e guitarra)
Tom: A
[Intro/Riff 1]

E|-------------------------------|
B|--------------3----------------|
G|--------2-----2----------------|
D|--------2-----0----------------|
A|-2-5-2--0--2----2--------------|
E|-0-3-0-----0----0--------------|

[Riff 2]

E|---------------------------|
B|---------------------------|
G|---7--7/9-9----------------|
D|---7--7/9-9----------------|
A|---5--5/7-7----------------|
E|---------------------------|

[Refrão]

E|-------------------------------|
B|-------------------------------|
G|-2--2---2----------------------|
D|-2--2---2----------------------|
A|-0--0---0----------------------|
E|------3------------------------|

E|-------------------------------|
B|-------3-----------------------|
G|-------2-----------------------|
D|-2--2--0-----------------------|
A|-2--2----2---------------------|
E|-0--0----0---------------------|

E|-------------------------------|
B|-------------------------------|
G|-2--2---2----------------------|
D|-2--2---2----------------------|
A|-0--0---0----------------------|
E|------3------------------------|

E|-------------------------------|
B|-------------------------------|
G|-------------------------------|
D|-2-----------------------------|
A|-2-----------------------------|
E|-0-----------------------------|

[Riff 2]

E|---------------------------|
B|---------------------------|
G|---7--7/9-9----------------|
D|---7--7/9-9----------------|
A|---5--5/7-7----------------|
E|---------------------------|

[Refrão]

E|-------------------------------|
B|-------------------------------|
G|-2--2---2----------------------|
D|-2--2---2----------------------|
A|-0--0---0----------------------|
E|------3------------------------|

E|-------------------------------|
B|-------3-----------------------|
G|-------2-----------------------|
D|-2--2--0-----------------------|
A|-2--2----2---------------------|
E|-0--0----0---------------------|

E|-------------------------------|
B|-------------------------------|
G|-2--2---2----------------------|
D|-2--2---2----------------------|
A|-0--0---0----------------------|
E|------3------------------------|

E|-------------------------------|
B|-------------------------------|
G|-------------------------------|
D|-2-----------------------------|
A|-2-----------------------------|
E|-0-----------------------------|

[Solo]

E|----------------------------------------|
B|--------------------10b12---------------|
G|7-7----9b10r9-9p7-7---------------------|
D|----9~~---------------------------------|
A|----------------------------------------|
E|----------------------------------------|

E|-----------------------------------------------|
B|-12-12-12-12-12-12-12-12-12-12-12-12-12-12-12--|
G|-x--x-x-x--x--x-x-x-x-x-x-x--x--x-x-x-x-x-x-x--|
D|-9--9-9-9--9--9-9-9-9---9-9--9--9-9-9----------|
A|-----------------------------------------------|
E|-----------------------------------------------|

E|7-10p7-9p7--------------------------|
B|-----------10p7-9p7-----------------|
G|--------------------7-7------7b9----|
D|---------------------9-9b10-9-------|
A|---------------------------9--------|
E|------------------------------------|

e|0-7p4-7p4-7p4-7p4-7p4-7p4-7p4-7p4-7p4|
B|-------------------------------------|
G|-------------------------------------|
D|-------------------------------------|
A|-------------------------------------|
E|-------------------------------------|

E|5-8p5-8p5-8p5-8p5-8p5-8p5-8-5-8p5-8p5-8-|
B|----------------------------------------|
G|----------------------------------------|
D|----------------------------------------|
A|----------------------------------------|
E|----------------------------------------|

E|6-9p6-9p6-9p6-9p6-9p6-9p6-9p6-9p6-9p6---|
B|----------------------------------------|
G|----------------------------------------|
D|----------------------------------------|
A|----------------------------------------|
E|----------------------------------------|

E|7-10p7-10-7p10p7-10p7-10p7-10p7-10p7-|
B|-------------------------------------|
G|-------------------------------------|
D|-------------------------------------|
A|-------------------------------------|
E|-------------------------------------|

E|8-11p8-11p8-11p8-11p8-11p8-11p8------|
B|-------------------------------------|
G|-------------------------------------|
D|-------------------------------------|
A|-------------------------------------|
E|-------------------------------------|

E|9-12p9-12p9-12p9-12p9-12p9-----------|
B|-------------------------------------|
G|-------------------------------------|
D|-------------------------------------|
A|-------------------------------------|
E|-------------------------------------|

e|10-13p10-13p10-13p10-13p10-13p10-13p10-|
B|---------------------------------------|
G|---------------------------------------|
D|---------------------------------------|
A|---------------------------------------|
E|---------------------------------------|

e|11-14p11-14p11-14p11-14p11-14p11-14p11-|
B|---------------------------------------|
G|---------------------------------------|
D|---------------------------------------|
A|---------------------------------------|
E|---------------------------------------|

e|12-15p12-15p12-15p12-15p12-15p12-15p12-|
B|---------------------------------------|
G|---------------------------------------|
D|---------------------------------------|
A|---------------------------------------|
E|---------------------------------------|

e|13-16p13-16p13-16p13-16p13-16p13-16p13-|
B|---------------------------------------|
G|---------------------------------------|
D|---------------------------------------|
A|---------------------------------------|
E|---------------------------------------|

e|14-17p14-17p14-17p14-17p14-17p14-17p14-17-17b19-|
B|------------------------------------------------|
G|------------------------------------------------|
D|------------------------------------------------|
A|------------------------------------------------|
E|------------------------------------------------|

[Riff 2]

E|---------------------------|
B|---------------------------|
G|---7--7/9-9----------------|
D|---7--7/9-9----------------|
A|---5--5/7-7----------------|
E|---------------------------|

[Refrão]

E|-------------------------------|
B|-------------------------------|
G|-2--2---2----------------------|
D|-2--2---2----------------------|
A|-0--0---0----------------------|
E|------3------------------------|

E|-------------------------------|
B|-------3-----------------------|
G|-------2-----------------------|
D|-2--2--0-----------------------|
A|-2--2----2---------------------|
E|-0--0----0---------------------|

E|-------------------------------|
B|-------------------------------|
G|-2--2---2----------------------|
D|-2--2---2----------------------|
A|-0--0---0----------------------|
E|------3------------------------|

E|-------------------------------|
B|-------------------------------|
G|-------------------------------|
D|-2-----------------------------|
A|-2-----------------------------|
E|-0-----------------------------|

[Final]

E|-------------------------------|
B|---------------3---------------|
G|--------2------2---------------|
D|--------2------0---------------|
A|-2-5-2--0--2-2---2-------------|
E|-0-3-0-----0-0---0-------------|
Composição de Angus Young / Bon Scott
Colaboração e revisão:
  • Marcos Paulo
52.400 exibições
    • ½ Tom
    • A
    • Bb
    • B
    • C
    • Db
    • D
    • Eb
    • E
    • F
    • F#
    • G
    • Ab
  • Adicionar à lista

    0 comentários

    Mostrar mais comentários

    Conseguiu tocar?

    11 Tocaram 0 Ainda não

    Grave um vídeo tocando Dirty Deeds Done Dirt Cheap e mande pra gente!

    00:00 / 00:00
    outros vídeos desta música
    repetir qualidade Automático
    Outros vídeos desta música
    00:00 / 00:00
    Automático

    Cifra Club Pro

    Aproveite o Cifra Club com benefícios exclusivos e sem anúncios
    7 dias grátis
    Cifra Club Pro
    Aproveite o Cifra Club com benefícios exclusivos e sem anúncios
    7 dias grátis
    OK